Red Hot Chili Peppers

Red Hot Chili Peppers - Stadium Arcadium - Mars Bass guitar tab

Artist: Red Hot Chili Peppers

Album: Stadium Arcadium -> Mars CD

Bassist: Flea

Tabbed By: Marcos Prieto (webmaster at tabs-database.com.com)

Hi. Some time ago I sent the Jupiter CD tab from the album Stadium Arcadium

After several requests I decided to make the Mars CD tab. Thank you all

for the good rates and for the comments. I hope that you can value the hard

work of tabulating this 28 songs (Jupiter + Mars).

The chords over the tab are only a reference, for example, if the

guitar plays C7b9 I put 'C'.

I dedicate this tab to all the bass and guitar players who make an

great effort creating good tabs.

If you see any mistake please tell me, send a message or e-mail.

If you like the tabs or not, please rate, and make comments about it.

Notation legend:

\\ | /

3 -> triplet, 3 notes in 2 beats.

x -> mute.

\\ -> slide up. \\ It can be after or before the note, like 1h3,

/ -> slide down. | but if there's no enought space it can be

h -> hammer on. | over or down, like G|-13-...

p -> pull off. / D|--h-...

~ -> let ring.

r -> rest.

S -> slap.

P -> pop.

+ + -> the rhythm of the song, generally 4x4. If there are 2 digits notes

or there's no enough space, I lengthen it,

from (+ + ...) to (+ · + · ...)

|·------·| -> repeat this a number of times, for example |·3-3-3-3·| x4

repeats 3-3-3-3 four times.

STADIUM ARCADIUM -Mars CD-:

1. Desecration Smile.

2. Tell Me baby.

3. Hard To Concentrate.

4. 21st Century.

5. She Looks To Me.

6. ReadyMade.

7. If.

8. Make You Feel Better.

9. Animal Bar.

10. So Much I.

11. Storm In A Teacup.

12. We Believe.

13. Turn It Again.

14. Death Of A Martian.

*************************************************************************

- - - - - ·+----------------------+· - - - - - -

/ \\ / \\ / \\ / \\ / \\ / +| 1. DESECRATION SMILE |+ \\ / \\ / \\ / \\ / \\ / \\

- - - - - - ·+----------------------+· - - - - -

*************************************************************************

Beautiful song, take a look to the Solo's scale, it's a bit difficult.

Intro:

C#m E

+ + + + + + + + + + + + + + + +

G|13~-------------|--------13--11--|9~--------------|----------------|

D|----------------|----------------|----------------|----------------|

A|----------------|----------------|----------------|----------------|

E|----------------|----------------|----------------|----------------| x2

Verse 1:

Em D C Em D C

+ + + + + + + + + + + + + + + +

G|-----------9-9--|----------------|-----------9--9-|--------7---/---|

D|----------9---9-|----------------|----------9-----|-------7---575--|

A|7---7---7------7|5---5---3-03--35|7---7---7------7|5---5----x3---75|

E|----------------|----------------|----------------|----------------|

Em D C Em D C

+ + + + + + + + + + + + + + + +

G|-----------9--9-|----------------|-----------9--9-|--------7---/---|

D|----------9-----|----------------|----------9-----|-------7---57---|

A|7---7---7------7|5---5---3-03-303|7---7---7------7|5---5----x3---5-|

E|----------------|----------------|----------------|----------------|

Em D C Em D C

+ + + + + + + + + + + + + + + +

G|-----------9--9-|----------------|-----------9--9-|--------7---/---|

D|----------9-----|----------------|----------9-----|-------7---59-7-|

A|7---7---7------7|5---5---3-033-5-|7---7---7------7|5---5----x3-----|

E|----------------|----------------|----------------|----------------|

Em D C Em D C

+ + + + + + + + + + + + + + + +

G|-----------9--9-|----------------|-----------9--9-|--------7-------|

D|----------9-----|----------------|----------9-----|-------7----/-5-|

A|7---7---7------7|5---5---3--03-35|7---7---7------7|5---5----x357---|

E|----------------|----------------|----------------|----------------|

Em D C Em D C Em

+ + + + + + + + + + + + + + + + + + + +

G|-----------9--9-|----------------|-----------9--9-|--------7-------|----------------|

D|----------9-----|----------------|----------9-----|-------7--------|----------------|

A|7---7---7------7|5---5---3--03-35|7---7---7------7|5---5----x3-3-5-|7---7-7-7-77----|

E|----------------|----------------|----------------|----------------|----------------|

Chorus 1:

D A E D A E

+ + + + + + + + + + + + + + + +

G|----------------|----------------|----------------|----------------|

D|----------------|----------------|----------------|----------------|

A|5---5---5-------|----7---7-7-7---|5---5---5-------|----7---77--7---|

E|---5-----x5-5---|0--0---0------0-|---------x5-5---|0-00---0--00--0-|

D A E D A

+ + + + + + + + + + + + + + + +

G|----------------|----------------|----------------|----------------|

D|----------------|----------------|----------------|----------------|

A|5---5---5-------|----7--77-----7-|5--55--55-55----|----------------|

E|----------5-5---|0--0--0---0-7---|----------------|5--55--55-555-x-|

Verse 2:

Em D C Em D C

+ + + + + + + + + + + + + + + +

G|-----------9--9-|--------------/-|-----------9--9-|--------7---/-7-|

D|----------9-----|-------------57-|----------9-----|-------7---59---|

A|7---7---7------7|5---5---3-03---5|7---7---7------7|5---5----x3-----|

E|----------------|----------------|----------------|----------------|

Em D C Em D C

+ + + + + + + + + + + + + + + +

G|-----------9--9-|----------------|-----------9--9-|--------7---/---|

D|----------9-----|----------------|----------9-----|-------7---575--|

A|7---7---7------7|5---5---3-03-35-|7---7---7------7|5---5----x3---75|

E|----------------|----------------|----------------|----------------|

Em D C Em D C

+ + + + + + + + + + + + + + + +

G|-----------9--9-|----------2474--|-----------9--9-|--------7-------|

D|----------9-----|-----------/--75|----------9-----|-------7--------|

A|7---7---7------7|5---5--03-------|7---7---7------7|5---5----x3-3-5-|

E|----------------|----------------|----------------|----------------|

Em D C Em D C

+ + + + + + + + + + + + + + + + .

G|-----------9--9-|----------------|-----------9--9-|--------7---/----|

D|----------9-----|----------------|----------9-----|-------7---597---|

A|7---7---7------7|5---5---3-03-303|7---7---7------7|5---5----x3---9--|

E|----------------|----------------|----------------|---------------10|

Em D C Em D C Em

+ + + + + + + + + + + + + + + + + + + +

G|-----------9--9-|----------------|-----------9--9-|--------7-------|----------------|

D|----------9-----|----------------|----------------|-------7--------|----------------|

A|7---7---7------7|5---5---3--03-35|7---7---7------7|5---5----x3-3-5-|----7---7-77----|

E|----------------|----------------|----------------|----------------|0-00---0--------|

Chorus 2:

D A E D A E

+ + + + + + + + + + + + + + + +

G|----------------|---------9--9---|----------------|----------------|

D|----------------|-------/9--9-9--|----------------|----------------|

A|5---5---5-------|----7-----7---7-|5---5---5-------|----7---77--74--|

E|---------x5-5---|0--0------------|---------x5-5---|0-00---0--0---7-|

D A E D A

+ + + + + + + + + + + + + + + +

G|----------------|----------------|----------------|----------------|

D|----------------|----------------|----------------|----------------|

A|5---5---5-------|------2/7-77-775|5--55--55-55----|----------------|

E|---5-----x5-5---|0--00-----------|----------------|5--55--55-555-3-|

Solo:

C G Em

+ + + + + + + +

G||----------------|--------12119------------------||

D|.----------------|--------------9----------------.|

A|.3--x3---3-------|----------------109-7-5--------.|

E||---------x3-3-3-|0-----------------------8-7-3--|| x5

C G

+ + + +

G|----------------|

D|----------------|

A|3--x3---3-------|

E|---------x3-3-3-|

Verse 3:

Em D C Em D C

+ + + + + + + + + + + + + + + +

G|-----------9--9-|----------------|-----------9--9-|--------7---/---|

D|----------9-----|----------------|----------9-----|-------7---59-75|

A|7---7---7------7|5---5---3-03--35|7---7---7------7|5---5----x3-----|

E|----------------|----------------|----------------|----------------|

Em D C Em D C

+ + + + + + + + + + + + + + + +

G|-----------9--9-|----------------|-----------9--9-|--------7-------|

D|----------9-----|----------------|----------9-----|-------7----5---|

A|7---7---7------7|5---5---3-03-303|7---7---7------7|5---5----x3---5-|

E|----------------|----------------|----------------|----------------|

Em D C Em D C Em

+ + + + + + + + + + + + + + + + + + + +

G|-----------9--9-|--------------hp|-----------9--9-|--------7-------|----------------|

D|----------9-----|-------------575|----------9-----|-------7--------|----------------|

A|7---7---7------7|5---5---3-03----|7---7---7------7|5---5----x3-303-|7---77--77--77--|

E|----------------|----------------|----------------|----------------|----------------|

Chorus 3:

D A E D A E

+ + + + + + + + + + + + + + + +

G|--------7-------|----------------|----------------|----------------|

D|----------------|----------------|----------------|----------------|

A|5--x5-----------|----7---77--77--|5---5---5-------|----7---77--77--|

E|---------x5-5---|0-00---0--0---0-|---------x5-5---|0-00---0--0---0-|

D A E D A

+ + + + + + + + + + + + + + + +

G|----------------|----------------|----------------|----------------|

D|----------------|----------------|----------------|----------------|

A|5---5---5-------|----7---77--775-|5--55--55-55----|----------------|

E|---------x5-5---|0-00---0--0-----|----------------|5--55---5-000---|

D A E D A E

+ + + + + + + + + + + + + + + +

G|----------------|----------------|----------------|----------------|

D|----------------|----------------|----------------|----------------|

A|5--x5---5-------|----7---77--77--|5---5---5-------|----7---77--77--|

E|---------x5-5---|0-00---0--0---0-|---------x5-5---|0-00---0--0---0-|

D A E D A

+ + + + + + + + + + + + + + + +

G|----------------|----------------|----------------|----------------|

D|----------------|----------------|----------------|----------------|

A|5---5---5-------|----7---77--775-|5--55--55-55----|----------------|

E|---------x5-5---|0-00---0--0-----|----------------|5---5--05-//12--|

Ending:

C#m E

+ + + + + + + + + + + + + · + · + · + ·

G|13~-------------|--------13--11--|9~--------------|--------------------------9-11--|

D|----------------|----------------|----------------|--------------------------------|

A|----------------|----------------|----------------|--------------------------------|

E|----------------|----------------|----------------|--------------------------------|

C#m E

+ · + · + · + · + · + · + · + ·

G|1113131313~---------------------|/18-16--------------------------|

D|--/-----------------------------|--------18p16------\\14--14~-----|

A|--------------------------------|--------------------------------|

E|--------------------------------|--------------------------------|

*******************************************************************

- - - - - ·+-----------------+· - - - - - -

/ \\ / \\ / \\ / \\ / \\ / +| 2. TELL ME BABY |+ \\ / \\ / \\ / \\ / \\ / \\

- - - - - - ·+-----------------+· - - - - -

*******************************************************************

********************************* VERSE: ****************************

___ V. End 1 __

Am \\

+ + + + + + + + + + + + + + + +

G||-h--------------|-h--------------|-h--------------|-h--------------||

D|·57-7-x---x------|57-7-x---x------|57-7-x---x------|57-7-x----------·|

A|·----------------|----------------|----------------|----------------·|

E||--x---55--55-5--|--x---55--55-5--|--x---55--55-5--|--x---5-0-0-3-3-||

P SP PSS PSS S P SP PSS PSS S P SP PSS PSS S P SP PS

___ V. End 2 __ ___ V. End 3 __ ___ V. End 4 __

\\ \\ \\

+ + + + + + + + + + + +

G|-h--------------| |-h--------------| |-h--------------|

D|57-7-5----------| |57-7-x----2---5-| |57-7-x----------|

A|----------------| |----------------| |----------------|

E|--x---5-0-0-3-3-| |--x---5-0---3---| |--x---5-0-0-3---|

P SP PS P SP PS S P S P P SP PS

___ V. End 5 __ ___ V. End 6 __

\\ \\

+ + + + + + + +

G|-h------0789-05-| |-h------/-------|

D|57-7-x----------| |57-7-x-57-5-----|

A|----------------| |------------753-|

E|--x---5---------| |--x-------------|

P SP PS P SP P

Verse 1 -> VERSE x5 (With V. End 1, 2, 3, 1, 4)

Verse 2 -> VERSE x5 (With V. End 1, 4, 4, 1, 1)

Verse 2 -> VERSE x2 (With V. End 5, 6)

********************************* CHORUS: ****************************

___Ch. End 1___

\\

F C G Am F C G

+ + + + + + + + + + + + + + + +

G||----------5-----|----------------|----------5-----|----------7-----||

D|·---3-3---/------|---5-5----7-----|---3-3---/------|---5-5---/------·|

A|·--------23----3-|---------/------|--------23----3-|--------35--5---·|

E||1-x---1---------|3-x---3-35--5-3-|1-x---1---------|3-x---3---------||

S SP PS S P S S SP PS S P S S S SP PS S P S S SP PS S P S

__ Ch. End 2 __ __ Ch. End 3 __ ___________ Ch. End 4 __________

G \\ G \\ G \\

+ + + + + + + + + + + + + + + +

G|----------------| |----------7-----| |----------------|----------------|

D|----5-------5---| |---5-5---/------| |----5--5----5--5|-5--5-------5---|

A|----------------| |--------35--5-5-| |----------------|----------------|

E|3-----3---3-----| |3-x---3---------| |3-------3-3-----|3-3---3-3-3---3-|

S SP PS S P S S S P PS S P P SPS P

__ Ch. End 5 __ ___________ Ch. End 6 __________

G \\ G \\

+ + + + + + + + + + + +

G|----------------| |----------------|----------------|

D|----5-------5---| |----5--5----5--5|----5-5---------|

A|----------------| |----------------|----------------|

E|3-----3---3---3-| |3-------3-3-----|3-3-----3-3-3-3-|

S P PS S P P S S P P

__ Ch. End 7 __ __________________ Ch. End 8 ____________________

G \\ G Am \\

+ + + + + + + + + + + + + + + +

G|----------------| |----------------|----------------|----------------|

D|---5-5---/------| |5-----5-----5---|5-----5---------|----------------|

A|--------35--5---| |----------------|----------------|----------------|

E|3-x---3---------| |--3-3---3-3---3-|--3-3---3-3-----|5~--------------|

P S S P S S P S P S S P S S

CHORUS VARIATION:

F C G Am F C G

+ + + + + + + + + + + + + + + +

G|----------5-----|----------------|----------5-x--x|----------7-----|

D|---3-3---/------|---5-5----7-----|---3-3---/----/-|---5-5---/------|

A|--------23----3-|---------/------|--------23---23-|--------35--5---|

E|1-x---1---------|3-x---3-35--5-3-|1-x---1---------|3-x---3---------|

S SP PS S P S S SP PS S P S S S SP PS S P PS P S SP PS S P S

Chorus 1 -> CHORUS x4 (with Ch. End 1, 2, 3, 4)

Chorus 2 -> CHORUS VARIATION + CHORUS x3 (with Ch. End 5, 1, 6)

Chorus 3 -> CHORUS x4 (with Ch. End 1, 5, 7, 8)

*********************************************************************

Song structure:

Verse 1.

Chorus 1.

Verse 2.

Chorus 2.

Verse 3.

Chorus 3.

**************************************************************************

- - - - - ·+------------------------+· - - - - - -

/ \\ / \\ / \\ / \\ / \\ / +| 3. HARD TO CONTENTRATE |+ \\ / \\ / \\ / \\ / \\ / \\

- - - - - - ·+------------------------+· - - - - -

**************************************************************************

Take a look to the 2 last beats from the verse (the D chords) and all the

beats from the chorus (C & D chords). You must do a bit rest before playing

the note.

Verse:

Em D B D B

+ + + + + + + + + + + + + + + +

G||--16-14-12-14-12|--16-14-12-14-12|----11---11--11-|----11---11--11-||

D|.----------------|----------------|----------------|----------------.|

A|.----------------|----------------|----------------|----------------.|

E||12--12-12-12-12-|12--12-12-12-12-|-10---107---7---|-10---107---7---|| x2

Chorus:

C G D Em

+ · + · + · + · + · + · + · + ·

G||----12---------------12--12-----|----11----------------14--12----||

D|.--------------------------------|--------------------------------.|

A|.----------------10-----10-------|--------------------------------.|

E||--8-----8-----------------------|--10----10------12------12------|| x3

C G D

+ · + · + · + · + · + · + · + ·

G|----12---------------12--12-----|----11----------------11--11----|

D|--------------------------------|--------------------------------|

A|----------------10-----10-------|--------------------------------|

E|--8-----8-----------------------|--10----10------10------10------|

D

+ · + · + · + ·

G|--------11------------11--11----|

D|--------------------------------|

A|--------------------------------|

E|10--10------10--10------10------|

Bridge:

C G D

+ + + + + + + + + + + + + + + +

G||----------------|----------------|----------------|----------------||

D|.----------------|----------------|----------------|----------------.|

A|.3~--------------|----------------|----------------|5~--------------.|

E||----------------|----------------|3~--------------|----------------|| x3

C G D

+ + + + + + + + + + + + + + + + + + + +

G|----------------|----------------|----------------|----------------|----------------|

D|----------------|----------------|----------------|----------------|----------------|

A|3~--------------|----------------|----------------|5---5---5-555---|5-555---5-555---|

E|----------------|----------------|3~--------------|----------------|----------------|

Song structure:

Verse x2.

Chorus.

Verse.

Chorus.

Verse.

Chorus.

Bridge.

Verse.

Chorus x2, end with

Em

G|----------------|

D|----------------|

A|----------------|

E|0~--------------|

*******************************************************************

- - - - - ·+-----------------+· - - - - - -

/ \\ / \\ / \\ / \\ / \\ / +| 4. 21st CENTURY |+ \\ / \\ / \\ / \\ / \\ / \\

- - - - - - ·+-----------------+· - - - - -

*******************************************************************

Verse:

Verse x6 (with Ends -> 1, 2, 1, 3, 4, 5).

Chorus 1.

Verse x5 (with Ends -> 6, 1, 5, 4, 5).

____·End 1·____

\\

Dm Bb Am G C

+ + + + + + + + + + + + + + + +

G||----------------|----------------|----------------|----------------||

D|·----------------|----------------|----------------|----32------32--·|

A|·5-5-5-5-5-5-875-|------------875-|------------875-|------3-3-3---3-·|

E||----------------|6-6-6-6-6-6-----|5-5-5-5-5-5-----|3-3-------------||

____·End 2·____ ____·End 3·____ ____·End 4·____

\\ \\ \\

G C G C G C

+ + + + + + + + + + + +

G|--------32020-0-| |----------------| |----------------|

D|----32-------3--| |----32------325-| |----32----3232--|

A|------3---------| |------3-3-3-----| |------3-3-----3-|

E|3-3-------------| |3-3-------------| |3-3-------------|

____·End 5·____ ____·End 6·____

\\ \\

G C G C

+ + + + + + + +

G|----------------| |----------5-----|

D|----32----32325-| |----32--/7--75--|

A|------3-3-------| |------3-------8-|

E|3-3-------------| |3-3-------------|

Verse Variation:

Dm Bb Am G C

+ + + + + + + + + + + + + + + +

G|----------------|----------------|----------------|----------5-----|

D|----------------|--8---8---8-----|--7---7---7-----|--5---5---------|

A|5-5-5-5-5-5-875-|------------875-|------------875-|--------3---3---|

E|----------------|6---6---6-------|5---5---5-------|3---3-----------|

Chorus 1 & 2:

Dm Bb F Am

+ + + + + + + +

G||----------------|----------------||

D|·------57888888--|-------5777775--·|

A|·55555-----------|88888-8-------8-·|

E||----------------|----------------|| x3

Dm Bb G Bb

+ + + + + + + + + + + +

G|----------------|----------------|----------------|

D|------57888888--|55555-55555-5---|55555-----------|

A|55555-----------|----------------|----------------|

E|----------------|----------------|------66666-6---|

Bridge:

Dm Bb

+ · + · + · + · + · + · + · + ·

G||--------------------17--17------|--------------------19--17------|

D|·19--19--19--19------------------|19--19--19--19------------------|

A|·--------------------------------|--------------------------------|

E||--------------------------------|--------------------------------|

_________1st & 2nd end_________

\\

F C

+ · + · + · + · + · + · + · + ·

G|--------------------17--17------|--------17----------------------||

D|19--19--17--19------------------|19--19------19------17--17------·|

A|--------------------------------|--------------------------------·|

E|--------------------------------|--------------------------------|| x3

____________3rd end____________

\\

C

+ · + · + · + ·

G|--------17------17--------------|

D|19--19------19------19--17------|

A|--------------------------------|

E|--------------------------------|

Chorus 3:

Dm Bb F Am Dm Bb F Am

+ + + + + + + + + + + + + + + +

G||----------------|----------------|| |----------------|------55555-5---|

D|·------57888888--|-------5777775--·| |------57888888--|----------------|

A|·55555-----------|88888-8-------8-·| |55555-----------|88888-----------|

E||----------------|----------------|| x3 |----------------|----------------|

Dm Bb F Am Dm Bb F Am

+ + + + + + + + + + + + + + + +

G||----------------|----------------|| |----------------|------55555-5---|

D|·------57888888--|-------5777775--·| |------57888888--|----------------|

A|·55555-----------|88888-8-------8-·| |55555-----------|88888-----------|

E||----------------|----------------|| x3 |----------------|----------------|

Dm Bb F Am Dm Bb F Am

+ + + + + + + + + + + + + + + +

G|----------------|----------------|----------------|--------5--7-5--|

D|------57888888--|-------5777775--|------57888888--|-------5-7----7-|

A|55555-----------|88888-8-------8-|55555-----------|88888-8---------|

E|----------------|----------------|----------------|----------------|

Dm Bb F Am Dm Bb F Am

+ + + + + + + + + + + + + + + +

G|----------------|----------------|----------------|----------------|

D|------57888888--|-------577-5----|------57888888--|----------------|

A|55555-----------|88888-8------85-|55555-----------|88888-x8---8--7-|

E|----------------|----------------|----------------|--------6-------|

Dm Bb F Am Dm Bb F Am

+ + + + + + + + + + + + + + + +

G|----------------|----------------|----------------|----------------|

D|------5788-8-75-|-------577-7-5--|------5788-8-7x-|----------------|

A|55555-----------|8--88-8-------8-|5--55-----------|8--88-x8---8--7-|

E|----------------|----------------|----------------|--------66---6--|

Dm Bb F Am Dm Bb F Am

+ + + + + + + + + + + + + + + +

G|----------------|-----------5-75-|----------------|----------------|

D|------5788-8-75-|-------577------|------5788-8-75-|--------5-7-5---|

A|5--55x----------|8--88-8---------|5--55-----------|8-8-8---------8-|

E|----------------|----------------|----------------|----------------|

Dm

+ + + + + + + + + + + + + + + +

G|----------------|----------------|----------------|----------------|

D|----------------|----------------|----------------|----------------|

A|5~--------------|----------------|17\\\\\\-----------|----------------|

E|----------------|----------------|----------------|----------------|

Song Structure:

Verse x6 (with Ends -> 1, 2, 1, 3, 4, 5).

Chorus 1.

Verse x5 (with Ends -> 6, 1, 5, 4, 5).

Chorus 2.

Verse x2 (with Ends -> 6, 5) + Verse Variation + Verse x1 (with End -> 5).

Chorus 3.

**********************************************************************

- - - - - ·+--------------------+· - - - - - -

/ \\ / \\ / \\ / \\ / \\ / +| 5. SHE LOOKS TO ME |+ \\ / \\ / \\ / \\ / \\ / \\

- - - - - - ·+--------------------+· - - - - -

**********************************************************************

Intro:

F#m A (5º) E G#m F#m A E

+ + + + + + + + + + + + + + + +

G|----------------|----------------|----------------|----------------|

D|4---------------|--------6-------|4---------------|----------------|

A|--------7-------|7---------------|--------7-------|7~--------------|

E|----------------|----------------|----------------|----------------|

Verse 1:

A C G F A C G F

+ + + + + + + + + + + + + + + +

G|----------------|----------------|----------------|----------------|

D|----------------|----------------|----------------|------------0---|

A|0---0--0-33-3--3|----------------|0---0--0-33-3--3|--------------32|

E|----------------|-x3-3--3-x1-1-3-|----------------|-x3-3--3-01-----|

A C G F A C G F

+ + + + + + + + + + + + + + + +

G|----------------|----------------|----------------|----------------|

D|----------------|----------------|----------------|----------------|

A|0---0--0-33-3--3|----------------|0---0--0-33-3--3|--------------23|

E|----------------|-x3-3--3-01-1-3-|----------------|-x3-3--3-01-13--|

A C G F A C G F

+ + + + + + + + + + + + + + + +

G|----------------|----------------|----------------|----------------|

D|----------------|----------------|----------------|----------------|

A|0---0--0-33-3--3|--------------3-|0---0--0-33-3-35|----------------|

E|----------------|-x3-3--3-01-3---|----------------|3---3--33-3-3-3-|

S

Chorus 1:

F#m A (5º) E F#m F#m A (5º) E F#m

+ + + + + + + + + + + + + + + +

G|----------------|----------*-----|----------------|----------------|

D|4---4--4--------|---------x6-6-4-|4---4--4--------|----------------|

A|---------x7-7--7|-x7-7--7-------7|---------x7-7--7|-x7-7--7-x4----7|

E|----------------|----------------|----------------|----------------|

F#m A (5º) E F#m F#m A (5º) E

+ + + + + + + + + + + + + + + +

G|----------------|----------*-----|----------------|----------------|

D|4---4--4--------|---------x6-4---|464-4--4--------|----------------|

A|---------x7-7--7|-x7-7--7-----747|---------x7-7---|7~--------------|

E|----------------|----------------|---------------7|----------------|

* Quick hammer on -> 4h6

Verse 2:

A C G F A C G F

+ + + + + + + + + + + + + + + +

G|----------------|----------------|----------------|----------------|

D|----------------|----------------|----------------|-----------/20--|

A|0---0--0-33-3--3|--------------3-|0---0--0-33-3--3|--------------32|

E|----------------|-x3-3--3-01-1---|----------------|-03-3--3-01-----|

A C G F A C G F

+ + + + + + + + + + + + + + + +

G|----------------|----------------|----------------|----------------|

D|----------------|----------------|----------------|----------------|

A|0---0--0-33-3--3|--------------23|0---0--0-33-3-35|----------------|

E|----------------|-x3-3--3-01-1---|----------------|3---3--33-3-3---|

Chorus 2:

F#m A (5º) E F#m F#m A (5º) E F#m

+ + + + + + + + + + + + + + + +

G|----------------|----------h-----|----------------|----------------|

D|4---4--4--------|---------46-6-4-|4---4--4--------|----------------|

A|---------x7-7--7|-x7-7--7-------7|---------x7-7--7|-x7-7--7-x4-4-7-|

E|----------------|----------------|----------------|----------------|

F#m A (5º) E F#m F#m A (5º) E

+ + + + + + + + + + + + + + + +

G|----------------|-----------h----|----------------|----------------|

D|4---4--4--------|----------464---|4---4--4--------|----------------|

A|---------x7-7--7|-x7-7--7-----747|---------x7-77-357-7-7--77-7-7-7-|

E|----------------|----------------|----------------h/---------------|

Bridge:

A C F

+ + + + + + + + + + + + + + + +

G|----------------|----------------|----------------|----------------|

D|--------------2-|--------------5-|3---3---3---3-2-|3---3---3-2-----|

A|0---0---0---0---|3---3---3---3---|----------------|------------532-|

E|----------------|----------------|----------------|----------------|

A C F

+ + + + + + + + + + + + + + + +

G|----------------|----------------|----------------|-----2----------|

D|--------------2-|--------------5-|3---3---3---3-2-|3---3-3-2-0-----|

A|0---0---0---0---|3---3---3---3---|----------------|------------3---|

E|----------------|----------------|----------------|--------------0-|

Verse 3:

A C G F A C G F

+ + + + + + + + + + + + + + + +

G|----------------|----------------|----------------|----------------|

D|----------------|----------------|----------------|----------------|

A|0---0--0-33-3--3|----------------|0---0--0-33-3--3|------------3232|

E|----------------|-03-3--3-01-1-3-|----------------|-03-3--3-01-----|

A C G F A C G F

+ + + + + + + + + + + + + + + +

G|----------------|----------------|----------------|----------------|

D|----------------|------------20--|----------------|----------------|

A|0---0--0-33-3--3|--------------3-|0---0--0-33-3-33|----------------|

E|----------------|-03-3--3-01-----|----------------|-03-3--3-01-1---|

A C G F A C G F

+ + + + + + + + + + + + + + + +

G|----------------|----------------|----------------|----------------|

D|----------------|----------------|----------------|------------/---|

A|0---0--0-33-3--3|----------------|0---0--0-33-3--3|-----------35-32|

E|----------------|-03-3--3-01-1-3-|----------------|-03-3--3-01-----|

A C G F A C G F

+ + + + + + + + + + + + + + + +

G|----------------|----------------|----------------|----------------|

D|----------------|----------------|----------------|----------------|

A|0---0--0-33-3--3|----------------|0---0--0-33-3-35|----------------|

E|----------------|-03-3--3-01-1-3-|----------------|3---3--33-3-3---|

Chorus 3:

F#m A (5º) E F#m F#m A (5º) E F#m

+ + + + + + + + + + + + + + + +

G|----------------|----------h-----|----------------|----------------|

D|4---4--4--------|---------46-6-4-|4---4--4--------|----------------|

A|----------7-7--7|--7-7--7-------7|---------x7-7--7|-x7-7--7-x4-4-7-|

E|----------------|----------------|----------------|----------------|

F#m A (5º) E F#m F#m A (5º) E F#m

+ + + + + + + + + + + + + + + +

G|----------------|-----------h----|----------------|----------------|

D|4---4--4--------|----------464---|464-4--4--------|----------------|

A|---------x7-7--7|-x7-7--7-----747|---------x7-7---|7-7-7--7-77-7777|

E|----------------|----------------|--------------x7|-7--------------|

G#m B (5º) F# G#m G#m B (5º) F# G#m

+ + + + + + + + + + + + + + + +

G|----------------|-----------h----|----------------|----------------|

D|6---6--6--------|---------x686---|686--6--6-------|----------------|

A|---------x9-9--9|-x9-9-99------96|-------9-x9-9--9|-x9-9--9-x6-6-9-|

E|----------------|----------------|----------------|----------------|

G#m B (5º) F# G#m G#m B (5º) F# G#m

+ + + + + + + + + + + + + + + +

G|----------------|-----------h----|----------------|----------------|

D|6---6--6--------|---------x686-6-|686--6-66-------|----------------|

A|---------x9-9--9|-x9-9-99-----9-9|---------x9-9--9|-x9-9--9-x6-6-9-|

E|----------------|----------------|----------------|----------------|

G#m B (5º) F# G#m G#m B (5º) F# G#m

+ + + + + + + + + + + + + + + +

G|----------------|-----------h----|----------------|----------------|

D|6---6--6--------|---------x686-6-|686--6--6-------|----------------|

A|---------x9-9--9|-x9-9-99-----9-9|-------9-x9-9--9|-x9-9--9-x6-6-9-|

E|----------------|----------------|----------------|----------------|

G#m B (5º) F# G#m G#m B (5º) F#

+ + + + + + + + + + + + + + + +

G|----------------|-----------h----|----------------|----------------|

D|6---6--6--------|---------x686-6-|6----6--6------11----------------|

A|---------x9-9-99|-x9-9-99-----9-9|----------9-9-9-|9~--------------|

E|----------------|----------------|----------------|----------------|

****************************************************************

- - - - - ·+--------------+· - - - - - -

/ \\ / \\ / \\ / \\ / \\ / +| 6. READYMADE |+ \\ / \\ / \\ / \\ / \\ / \\

- - - - - - ·+--------------+· - - - - -

****************************************************************

Intro/Verse:

___V. End 1____

Em \\

+ + + + + + + + + + + + + + + +

G||----------------|----------------|----------------|----------------||

D|·--------5-------|--------5-------|--------5-------|--------------5-·|

A|·5-7-7-5---7-5-7-|5-7-7-5---7-5-7-|5-7-7-5---7-5-7-|--------5-6-7---·|

E||----------------|----------------|----------------|4-5-6-7---------|| x10

____V. End 2___ ____V. End 3___ ____V. End 4___ ____V. End 5___

\\ \\ \\ \\

+ + + + + + + + + + + + + + + +

G|----------------| |----------------| |----------------| |----------------|

D|----------------| |----------------| |--------------5-| |----------------|

A|--------5-6-7\\--| |--------5-6-7---| |--------5-6-7---| |--------5-6-7---|

E|4-5-6-7---------| |4-5-6-7-------0-| |4-5-6-7---------| |4-5-6-7---------|

Replace V. End 1 with V. End 2 last time after the chorus.

Chorus:

G A

+ + + + + + + + + + + + + + + +

G|----------------|----------------|----------------|----------------|

D|----------------|----------------|----------------|----------------|

A|----------------|------------5-7-|----------------|------------5-7-|

E|3-------3---3-3-|--3-3-----57----|5-------5---5-5-|--5-5-----7-----|

/

Em

+ + + + + + + + + + + + + + + +

G|----------------|----------------|----------------|----------------|

D|--------------5-|----------------|--------------5-|----------------|

A|7---7---5-7-----|----5-7---------|7---7---5-7-----|----5-7---------|

E|------7---------|--7-------7-5-3-|------7---------|--7-------7-5-3-|

G A

+ + + + + + + + + + + + + + + +

G|----------------|----------------|----------------|----------------|

D|----------------|----------------|----------------|----------------|

A|----------------|--------5-7-5---|----------------|------------5-7-|

E|3-------3---3-3-|--3-57--------3-|5-------5----5-5|--5-5-----7-----|

/

Em

+ + + + + + + + + + + + + + + +

G|----------------|----------------|----------------|----------7-----|

D|--------------5-|----------------|--------------5-|--------79--97--|

A|7---7---5-7-----|----5-7---------|7---7---5-7-----|----5-7--/----10|

E|------7---------|--7-------7-5-3-|------7---------|--7-------------|

Verse 2 (Replace V. End 1 with V. End 3 last time after the chorus)

Chorus 2:

G A

+ + + + + + + + + + + + + + + +

G|----------------|----------------|----------------|----------------|

D|----------------|----------------|----------------|----------------|

A|----------------|----------------|----------------|------------5-7-|

E|3-------3---3-3-|--3-3---3-3-3---|5-------5----5-5|--5-5-----7-----|

Em

+ + + + + + + + + + + + + + + +

G|----------------|----------------|----------------|----------------|

D|--------------5-|----------------|--------------5-|----------------|

A|7---7---5-7-----|----5-7---------|7---7---5-7-----|----5-7---------|

E|------7---------|--7-------7-5-3-|------7---------|--7-------7-5-3-|

G A

+ + + + + + + + + + + + + + + +

G|----------------|----------------|----------------|----------------|

D|----------------|------5-7-5-----|----------------|----------------|

A|----------------|--5-7-------7-5-|----------------|------------5-7-|

E|3-------3---3-5/|7---------------|5-------5----5-5|--5-5-----7-----|

Em

+ + + + + + + + + + + + + + + +

G|----------------|----------------|----------------|----------------|

D|--------------5-|----------------|----------------|----------------|

A|7---7---5-7-----|----5-7---------|7---7---5-7---7\\|----------------|

E|------7---------|--7-------7-5-3-|------7---------|----------------|

Verse 3 (Replace V. End 1 with V. End 4 last time after the chorus)

Bridge:

+ + + + + + + +

G|----------------| ||----------------||

D|----------------| |·----------------·|

A|5-----x4-----2--| |·------REST------·|

E|----------------| ||----------------|| x3

+ + + + + + + +

G|----------------| ||----------------||

D|----------------| |·----------------·|

A|----------------| |·------REST------·|

E|5-----4------2--| ||----------------|| x3

+ + + + + + + +

G|----------------| ||----------------||

D|----------------| |·----------------·|

A|5-----4------2--| |·------REST------·|

E|----------------| ||----------------|| x3

+ + + + + + + +

G|----------------| ||----------------||

D|----------------| |·----------------·|

A|----------------| |·------REST------·|

E|5-----4------2--| ||----------------|| x3

Verse 4 (Replace V. End 1 with V. End 5 last time after the chorus)

Chorus 3:

G A

+ + + + + + + + + + + + + + + +

G|----------------|----------------|----------------|----------------|

D|----------------|--------------5-|----------------|----------------|

A|----------------|--------/-5-7---|----------------|------------5-7-|

E|3-------3---3-3-|--3-3--57-------|5-------5----5-5|--5-5-----7-----|

Em

+ + + + + + + + + + + + + + + +

G|----------------|----------------|----------------|----------------|

D|--------------5-|----------------|--------------5-|----------------|

A|7---7---5-7-----|----5-7---------|7---7---5-7-----|----5-7---------|

E|------7---------|--7-------7-5-3-|------7---------|--7-------7-5-3-|

G A

+ + + + + + + + + + + + + + + +

G|----------------|----------------|----------------|----------------|

D|----------------|--------5-------|----------------|----------------|

A|----------------|--/-5-7-----7-5-|----------------|------------5-7-|

E|3-------3---3-3-|-57-------------|5-------5----5-5|--5-5-----7-----|

Em

+ + + + + + + + + + + + + + + +

G|----------------|----------------|----------------|----------------|

D|--------------5-|----------------|----------------|----------------|

A|7---7---5-7-----|----5-7---------|7---7---5-7---7\\|----------------|

E|------7---------|--7-------7-5-3-|------7---------|----------------|

*********************************************************

- - - - - ·+-------+· - - - - - -

/ \\ / \\ / \\ / \\ / \\ / +| 7. IF |+ \\ / \\ / \\ / \\ / \\ / \\

- - - - - - ·+-------+· - - - - -

*********************************************************

C#m B A

+ · + · + · + + · + · + · + ·

G|18--------18----16--------16----|14--------16----14--------14----| \\

D|--14--14----14----14--14----14--|--14--14----14----14--14--------| |

A|----16--------------16----------|----16--------------16----------| |

E|--------------------------------|--------------------------------| |

|

D E A \\RIFF

+ · + · + · + + · + · + · + · /A

G|11--------11----13--------13----|14--------16----14--------14----| |

D|--12--12----12----14--14----14--|--14--14----------14--14--------| |

A|----12--------------14----------|----16--------------16----------| |

E|--------------------------------|--------------------------------| /

C#m B A

+ · + · + · + + · + · + · + ·

G|18----19--18----16----18--16----|14--------16----14--------14----| \\

D|--14--------14----14--------14--|--14--14----14----14--14--------| |

A|--------------------------------|--------------------------------| |

E|--------------------------------|--------------------------------| |

|

D E A \\RIFF

+ · + · + · + + · + · + · + · /B

G|11--------11----13--------13----|14--------16----14--------14----| |

D|--12--12----12----14--14----14--|--14--14----------14--14--------| |

A|----12--------------14----------|----16--------------16----------| |

E|--------------------------------|--------------------------------| /

E A

+ · + · + · + + · + · + · + ·

G||13--------13----13--------13----|14--------16----14----------14--|| \\

D|·--14--14------14--14--14----14--|--14--14----------14--14--------·| |RIFF

A|·----14--14--14------14--14----14|----16--------------16----------·| |C

E||--------------------------------|--------------------------------||x2/

F G A

+ · + · + · + + · + · + · + ·

G||10--------10----12--------12----|14--------14----14--------14----|| \\

D|·--7---7-----10----9---9-----12--|--11--11----14----11--11----14--·| |RIFF

A|·----8---------------10----------|----12--------------12--------^-·| |D

E||--------------------------------|------------------------------|-||x2/

|

|

1st time you play

the RIFF D play a

slide before RIFF A.

Ending:

F E F E

+ · + · + · + + · + · + · + ·

G|10--------10----9---------9-----|10--------10----9---------9-----|

D|--7---7-----10----6----6----9---|--7---7-----10----6---6-----9---|

A|----8---------------7-----------|----8---------------7-----------|

E|--------------------------------|--------------------------------|

F E

+ · + · + · +

G|10--------10----9---------9-----|

D|--7---7-----10----6---6-----9---|

A|----8---------------7-----------|

E|--------------------------------|

A

+ · + · + · + + · + · + · + ·

G|7---------7-----7---------7-----|7---------7-----7---------7-----|

D|--7---------7-----7---------7---|--7---------7-----7---------7---|

A|------5---------------5---------|------5---------------5---------|

E|--------------------------------|--------------------------------|

F A

+ · + · + · + + · + · + · + ·

G|10--------10----10--------10----|7---------7-----7---------7-----|

D|--7---7-----10----7---7-----10--|--7---------7-----7---------7---|

A|----8---------------8-----------|------5---------------5---------|

E|--------------------------------|--------------------------------|

F A

+ · + · + · + + · + · + · + ·

G|10--------10----10--------10----|7---------7-----7---------7-----|

D|--7---7-----10----7---7-----10--|--7---------7-----7---------7---|

A|----8---------------8-----------|------5---------------5---------|

E|--------------------------------|--------------------------------|

F A

+ · + · + · + + · + · + · + ·

G|10--------10----10------10-/12--|7---------7-----7---------7-----|

D|--7---7-----10----7---7---------|--7---------7-----7---------7---|

A|----8---------------8-----------|------5---------------5---------|

E|--------------------------------|--------------------------------|

F D

+ · + · + · + + · + · + · + ·

G|10--------10----10--------------|--------------------------------|

D|--7---7-----10----7---7---------|--------------------------------|

A|----8---------------8-----------|--------------------------------|

E|--------------------------8-----|10~-----------------------------|

Song Structure:

RIFF A, B, A, B, C, D, A, A, B, C, C, D, Ending.

****************************************************************************

- - - - - ·+-------------------------+· - - - - - -

/ \\ / \\ / \\ / \\ / \\ / +| 8. MAKE YOU FEEL BETTER |+ \\ / \\ / \\ / \\ / \\ / \\

- - - - - - ·+-------------------------+· - - - - -

****************************************************************************

Verse 1:

+ + + + +

G||----------------||

D|·----------------·|

A|·-----REST-------·|

E||----------------||x8

(0:15)

Em Bm C G

+ + + + + + + + + + + + + + + +

G||----------------|----------------|----------------|----------------||

D|·----------------|9---------------|10--------------|----------------·|

A|·7---------------|----------------|----------------|10--------------·|

E||----------------|----------------|----------------|----------------|| x2

Em Bm C G

+ + + + + + + + + + + + + + + +

G||----------------|----------------|------9---------|----------------||

D|·------------7---|9---------------|10----------10--|----------------·|

A|·7-----10--------|----------------|----------------|10--------------·|

E||----------------|----------------|----------------|----------------|| x2

Em Bm C G

+ + + + + + + + + + + + + + + +

G||----------------|----------------|----------------|----------------||

D|·----------------|9---------------|10--------------|----------------·|

A|·7---------------|----------------|----------------|10--------------·|

E||----------------|----------------|----------------|----------------|| x2

Em Bm C G

+ + + + + + + + + + + + + + + +

G|----------------|----------------|------9---------|----------------|

D|------------7---|9---------------|10----------10--|----------------|

A|7-----10--------|----------------|----------------|10--------------|

E|----------------|----------------|----------------|----------------|

Em Bm C G

+ + + + + + + + + + + + + + + +

G|----------------|----------------|------9---------|----------------|

D|------------7---|9---------------|10----------10--|----------------|

A|7-----10--------|----------------|----------------|10------10------|

E|----------------|----------------|----------------|----------------|

Chorus 1:

G D (5º) Em (5º) C (5º)

+ + + + + + + + + + + + + + + +

G||----------------|----------------|----------------|----------------|

D|·----------------|7-----7---7-7---|9-----9---9-9---|----------------|

A|·10----10--1010--|----------------|----------------|10------101010--|

E||----------------|----------------|----------------|----------------|

G D (5º) Em (5º) C

+ + + + + + + + + + + + + + + +

G|----------------|----------------|----------------|----------------||

D|----------------|7-----7---7-7---|9-----9---9-9---|10--10--10--10--·|

A|10----10--1010--|----------------|----------------|----------------·|

E|----------------|----------------|----------------|----------------|| x2

Verse 2:

+ + + + + + + + +

G||----------------|| |----------------|

D|·----------------·| |----------------|

A|·-----REST-------·| |--------14\\\\\\\\\\\\|

E||----------------||x7 |----------------|

Em Bm C G

+ + + + + + + + + + + + + + + +

G||----------------|----------------|----------------|----------------||

D|·----------------|9---------------|10--------------|----------------·|

A|·7---------------|----------------|----------------|10--------------·|

E||----------------|----------------|----------------|----------------|| x2

Em Bm C G

+ + + + + + + + + + + + + + + +

G|----------------|----------------|----------------|----------------|

D|----------------|9---------------|10--------------|----------------|

A|7---------------|----------------|----------------|10------10--9---|

E|----------------|----------------|----------------|----------------|

Em Bm C G

+ + + + + + + + + + + + + + + +

G|----------------|----------------|----------------|----------------|

D|----------------|9---------------|10--------------|----------------|

A|7---------------|----------------|----------------|10------10------|

E|----------------|----------------|----------------|----------------|

Chorus 2:

G D (5º) Em (5º) C (5º)

+ + + + + + + + + + + + + + + +

G|----------------|----------------|----------------|----------------|

D|----------------|7-----7---7-7---|9-----9---9-9---|----------------|

A|10----10--1010--|----------------|----------------|10--1010--1010--|

E|----------------|----------------|----------------|----------------|

G D (5º) Em (5º) C

+ + + + + + + + + + + + + + + +

G|----------------|----------------|----------------|----------------|

D|----------------|7-----7---7-7---|9-----9---9-9---|10----1010--10--|

A|10----10--1010--|----------------|----------------|----------------|

E|----------------|----------------|----------------|----------------|

G D (5º) Em (5º) C (5º)

+ + + + + + + + + + + + + + + +

G|----------------|----------------|----------------|----------------|

D|----------------|7-----7---7-7---|9-----9---9-9---|----------------|

A|10----10--1010--|----------------|----------------|10----10--1010--|

E|----------------|----------------|----------------|----------------|

G D (5º) Em (5º) C

+ + + + + + + + + + + + + + + +

G|----------------|----------------|----------------|----------------|

D|----------------|7-----7---7-7---|9-----9---9-9---|10--10--10--10--|

A|10----10--1010--|----------------|----------------|----------------|

E|----------------|----------------|----------------|----------------|

Bridge:

D Em

+ + + + + + + + + + + + + + + +

G|----------------|----------------|----------------|----------------|

D|------------9---|12--9-----------|--------7---9---|7---------------|

A|----9---12------|--------12--9---|7---10----------|----10--7-------|

E|10--------------|----------------|----------------|------------10--|

C Am C

+ + + + + + + + + + + + + + + +

G|----------------|----------------|----------------|----------------|

D|------------7---|10--7-----------|----------------|----------------|

A|----7---10------|--------10--7---|--------5/7-----|----7---8---10--|

E|8---------------|----------------|5---8-------5---|8---------------|

Verse 3:

Em Bm C G

+ + + + + + + + + + + + + + + +

G||----------------|----------------|----------------|----------------||

D|·----------------|9---------------|10--------------|----------------·|

A|·7---------------|----------------|----------------|10--------------·|

E||----------------|----------------|----------------|----------------|| x4

Em Bm C G

+ + + + + + + + + + + + + + + +

G|----------------|----------------|------9---------|----------------|

D|------------7---|9-------9-------|10----------10--|----------------|

A|7-----10--------|----------------|----------------|10------9---10--|

E|----------------|----------------|----------------|----------------|

Em Bm C G

+ + + + + + + + + + + + + + + +

G|----------------|----------------|------9-----12--|----------------|

D|------------7---|9-----7-----9---|10--------------|----------------|

A|7-----10--------|----------------|----------------|10----1010101010|

E|----------------|----------------|----------------|----------------|

Chorus 3:

G D (5º) Em (5º) C (5º)

+ + + + + + + + + + + + + + + +

G|----------------|----------------|----------------|----------------|

D|----------------|7-----7---7-7---|9-----9---9-9---|----------------|

A|10----10--1010--|----------------|----------------|10--1010--1010--|

E|----------------|----------------|----------------|----------------|

G D (5º) Em (5º) C

+ + + + + + + + + + + + + + + +

G|----------------|----------------|----------------|----------------|

D|----------------|7-----7---7-7---|9-----9---9-9---|10---10101010---|

A|10----10--1010--|----------------|----------------|----------------|

E|----------------|----------------|----------------|----------------|

G D (5º) Em (5º) C (5º)

+ + + + + + + + + + + + + + + +

G|----------------|----------------|----------------|----------------|

D|----------------|7-----7---7-7---|9-----9---9-9---|----------------|

A|10----10--1010--|----------------|----------------|10----10--1010--|

E|----------------|----------------|----------------|----------------|

G D (5º) Em (5º) C

+ + + + + + + + + + + + + + + +

G|----------------|----------------|----------------|----------------|

D|----------------|7-----7---7-7---|9-----9---9-9---|10--10--10--10--|

A|10----10--1010--|----------------|----------------|----------------|

E|----------------|----------------|----------------|----------------|

G D (5º) Em (5º) C (5º)

+ + + + + + + + + + + + + + + +

G|----------------|----------------|----------------|----------------|

D|----------------|7-----7---7-7---|9-----9---9-9---|----------------|

A|10----10--1010--|----------------|----------------|10----10--1010--|

E|----------------|----------------|----------------|----------------|

G D (5º)

Get this song at:  amazon.com sheetmusicplus.com

Share your thoughts

0 Comments found