Red Hot Chili Peppers

Red Hot Chili Peppers - Stadium Arcadium guitar tab

-------------------------------------------------------------------------------

STADIUM ARCADIUM - RED HOT CHILI PEPPERS

-------------------------------------------------------------------------------

Tabbed by: superdude

Email:webmaster at tabs-database.com.com

Tuning: standard with some echo effect

verse: Fm-A

A-E

chorus: Bm-C#m-D-A-E

interlude/solo

rhythm guitar

1ST PART

e|---------------------------|

B|---------------------------|

G|-------------------3--6--7-|

D|--3--6--7---then---x--x--x-|

A|--x--x--x----------2--4--5-|

E|--2--4--5------------------|

2ND PART: C#m-Bm

Fm

solo guitar

e|--------------------------------------------------------------------------|

B|---------~---------~-------------------------------------9----------------|

G|---9b11--9----9b11r9----------9-------------~---------11------------~-----|

D|-----------11------------9b11---11r9--7--9b11----9/11-----11r9p7--9p7-----|

A|--------------------------------------------------------------------------|

E|--------------------------------------------------------------------------|

e|----------------------------7--------------~------------------------------|

B|----------------------------7--10-9-7-9b10-7----10b12r10--10-9-9h10---~---|

G|----~---------9-11------~---7----------------------------------------11---|

D|--7/9----9b11------9b11r9---9---------------------------------------------|

A|--------------------------------------------------------------------------|

E|--------------------------------------------------------------------------|

e|-----------------------------------------9--11-9------------------9-------|

B|-------------~---------------------------9-------12-9----------~--9--12-10|

G|--11r9----9b11---------9-------------~---9------------12\\11p9-11--9-------|

D|-------11---------9b11---11r9--7--9b11---11-----------------------11------|

A|--------------------------------------------------------------------------|

E|--------------------------------------------------------------------------|

-

e|---------------|

B|--9b10r9--~----|

G|---------11----|

D|---------------|

A|---------------|

E|---------------|Added by tabs-database.com and our distinguished partners

Get this song at:  amazon.com

Share your thoughts

0 Comments found