Red Hot Chili Peppers

Red Hot Chili Peppers - Slane Castle guitar tab

tabs-database.com[http://www.tabs-database.com.com/]

#----------------------------------PLEASE NOTE---------------------------------#

#This file is the author's own work and represents their interpretation of the #

#song. You may only use this file for private study, scholarship, or research. #

#------------------------------------------------------------------------------##

27.9.05 - 11.05

SLANE CASTLE INTRO (Live)

As recorded by Red Hot Chili Peppers

A while back i was looking for a tab to the Slane Castle Intro and couldn't find one, i then requested it. My request was never answered or the tab that answered didnt sound right. So i decided to tab it myself...and here it is, im sure its pretty accurate and sounds proper, so...ENJOY! and please rate!

Words and Music by Anthony Kiedis, Flea, John Frusciante, Chad Smith

Gtr I (E A D G B E) - 'John Frusciante'

Q=85

N.C.

4/4

Gtr I

Intro

|-----------12-13-13-13-12-------|-----------------------------|

|-15--15-15----------------15-13-|-15--15-15-13-------------13-|

|--------------------------------|--------------14-14-14-14----|

|--------------------------------|-----------------------------|

|--------------------------------|-----------------------------|

|--------------------------------|-----------------------------|

|-----------12-13-15-15----------|----------------------------------------|

|-15--15-15-------------15b17r13-|-15-15-15-15-15-------------------------|

|--------------------------------|----------------14-14p12h14-14-14-14----|

|--------------------------------|----------------------------------------|

|--------------------------------|----------------------------------------|

|--------------------------------|----------------------------------------|

|-----------12-12h13-13-12-------|-------------------------------------|

|-15--15-15----------------15-13-|-15-15-15-15-15-13-------------13-13-|

|--------------------------------|-------------------14-14-14-14-------|

|--------------------------------|-------------------------------------|

|--------------------------------|-------------------------------------|

|--------------------------------|-------------------------------------|

|-----------12-13-15----------|----------------------------------------------||

|-15--15-15----------15b17r13-|-15-15-15-15p13----15p13----15p13----15p13----||

|-----------------------------|----------------14-------14-------14-------14-||

|-----------------------------|----------------------------------------------||

|-----------------------------|----------------------------------------------||

|-----------------------------|----------------------------------------------||

Main Riff

~~

|-/17--17-17-17-17-15----15-------|------15b17--15b17-15-------|

|---------------------18----18-17-|-18-------------------18-17-|

|---------------------------------|----------------------------|

|---------------------------------|----------------------------|

|---------------------------------|----------------------------|

|---------------------------------|----------------------------|

~~ ~~

|------15b17--15b17-15-------|------------------------|

|-18-------------------18-17-|-18---18b20---18b20r18--|

|----------------------------|------------------------|

|----------------------------|------------------------|

|----------------------------|------------------------|

|----------------------------|------------------------|

~~ ~~

|------15b17--15b17-15-------|------15b17--19S20-15-------|

|-18-------------------18-17-|-18-------------------18-17-|

|----------------------------|----------------------------|

|----------------------------|----------------------------|

|----------------------------|----------------------------|

|----------------------------|----------------------------|

~~

|------15b17--20-15-------|-------------------------------------------||

|-18----------------18-17-|-18--20p18p17-20p18p17-20p18p17-20p18p17---||

|-------------------------|-------------------------------------------||

|-------------------------|-------------------------------------------||

|-------------------------|-------------------------------------------||

|-------------------------|-------------------------------------------||

Bending section - he comes in with the giant bending solo here

|----------------------------------------------------------------------------|

|-18b15-15b18-18b15-15b18-18b20r18-18b20r(18)-18-18b20r(18)-18-18b20r(18)-18-|

|----------------------------------------------------------------------------|

|----------------------------------------------------------------------------|

|----------------------------------------------------------------------------|

|----------------------------------------------------------------------------|

|-------------------------------------------------------------------------------|

|-18b20r(18)-18-18b20r(18)-18-18b20r(18)-18-18b20r(18)-18-18b20r(18)-18-18b20r--|

|-------------------------------------------------------------------------------|

|-------------------------------------------------------------------------------|

|-------------------------------------------------------------------------------|

|-------------------------------------------------------------------------------|

|-------------------------------------------------------------------------------|

|-18b20r(18)-18-18b20r(18)-18-18b20r(18)-18b21r(18)-18-18b20r(18)-18-18b20r(18)-|

|-------------------------------------------------------------------------------|

|-------------------------------------------------------------------------------|

|-------------------------------------------------------------------------------|

|-------------------------------------------------------------------------------|

|-------------------------------------|

|-15h17p15-15-13-13-13h15p13----------|

|----------------------------14-14-14-|

|-------------------------------------|

|-------------------------------------|

|-------------------------------------|

|-----------------------------------------------------------------------------|

|-20b22r(20)-20-20b22r(20)-20-20b22r(20)-20-20b22r(20)-20-20b22r(20)-20-20b22-|

|-----------------------------------------------------------------------------|

|-----------------------------------------------------------------------------|

|-----------------------------------------------------------------------------|

|-----------------------------------------------------------------------------|

|-----------------------------------------------------------------------------||

|-20b22r(20)-20-20b22r(20)-20-20b22r(20)-20-20b22r(20)-20-20b22r(20)-20-20b22-||

|-----------------------------------------------------------------------------||

|-----------------------------------------------------------------------------||

|-----------------------------------------------------------------------------||

|-----------------------------------------------------------------------------||

Outro

If you dont have 22 frets...dont fret...just bend to fret 21 and then on slightly again to fret 22

~~~~~ ~~

|-------20---------20---|-------20-20b22----(20)b22-20-20b22-|-(20)b22-20-17--18-17-18-17----15--|

|-20b22------20b22------|-20b22------------------------------|----------------------------18-----|

|-----------------------|------------------------------------|-----------------------------------|

|-----------------------|------------------------------------|-----------------------------------|

|-----------------------|------------------------------------|-----------------------------------|

|-----------------------|------------------------------------|-----------------------------------|

~~ ~~

|-17-15--------20--18-17-18-17-|-18-17-------15-17-17-15--------|

|-------18--18-----------------|-------18-18-------------18-17--|

|------------------------------|--------------------------------|

|------------------------------|--------------------------------|

|------------------------------|--------------------------------|

|------------------------------|--------------------------------|

H.=H

|-----------------------------------------------------------|

|-18--20p18p17-20p18p17-20p18p17-20p18p17-20p18p17-20p18p17-|

|-----------------------------------------------------------|

|-----------------------------------------------------------|

|-----------------------------------------------------------|

|-----------------------------------------------------------|

~~~~~~~~~~~~~~

|---------------------------|---------*|

|-20p18p17-20p18p17-15------|-(15)----*|

|---------------------------|---------*|

|---------------------------|---------*|

|---------------------------|---------*|

|---------------------------|---------*|

Tablature Legend

----------------

h - hammer-on

p - pull-off

b - bend

pb - pre-bend

r - bend release (if no number after the r, then release immediately)

/\\ - slide into or out of (from/to "nowhere")

~ - vibrato

x - palm muting

Misc Legend

-----------

| - bar

|| - double bar

*| - bar end

Tempo markers - = BPM(8/16=s8/s16), where s8 = swing 8ths, s16 = swing 16ths

Added by tabs-database.com and our distinguished partners

Get this song at:  amazon.com

Share your thoughts

0 Comments found