Red Hot Chili Peppers

Red Hot Chili Peppers - Skinny Sweety Man guitar tab

Verse:

A9

-||--------------8--8--8--8--|--8--8------------8--8--8-----||-

-||--------------8--8--8--8--|--8--8------------8--8--8-----||-

-||-*----Rest----6--6--6--6--|--6--6----Rest----6--6--6---*-||-

-||-*------------7--7--7--7--|--7--7------------7--7--7---*-||

-||--------------------------|------------------------------||-

-||--------------------------|------------------------------||-

Chorus:

-||---------------------|---------------------------||-

-||---------------------|---------------------------||-

-||----7--6--5----------|----------------------9----||-

-||-------------7-------|----5--6--7--8-------------||-

-||---------------------|----------------7-7--------||-

-||---------------------|---------------------------||-

Interlude:

-||-----x-x--x-x--7--9--x-x----12\----|----x-x--x-x--7--9--x-x----14\-----||-

-||-----x-x--x-x--7--9--x-x----12\----|----x-x--x-x--7--9--x-x----14\-----||-

-||-*---x-x--x-x--7--9--x-x----12\----|----x-x--x-x--7--9--x-x----14\---*-||-

-||-*---------------------------------|---------------------------------*-||-

-||-----------------------------------|-----------------------------------||-

-||-----------------------------------|-----------------------------------||-

Bass Riff:

-|----------------------------------0-------9-----|-

-|-*-----------5-----5--------------------------*-|-

-|-*---5h7--------------5h7----0----------------*-|-

-|----------x-----x---------------------0---------|-

S S p S p S S p S p

Get this song at:  amazon.com

Share your thoughts

0 Comments found