Red Hot Chili Peppers

Red Hot Chili Peppers - Sikamikanico bass tab

song: Sikamikanico

artist: Red Hot Chili Peppers

Verse:

G|--------------------------------|

D|--------------------------------|

A|--------------------------------| repeat this many times

E|-3-3-3-3-3-3-3-3-3-3-3-3-3-3-3-3|

pre-chorus:

G|---------------------------------------|x4

D|---------------------------------------|

A|-----------------5------5------5-------|

E|---7-7-7-7-7-------7------7------------|

Chorus:

G|----------------------------------------|x4

D|----------------------------------------|

A|----------------------------------------|

E|---0-0-0---1---0---0-0-0-1-3-1---------|

Verse: many times

pre-chorus: x4

chorus: x8

Interlude:

G|--------|--------------------|---------------------------------------------|

D|--------|--------------------|---------------------------------------------|

A|--------|------------3-2----|----------2---3-2------3-2-----3-2------------|

E|----0---|----0--------------|------0-------------0--------0--------0-------|

Listen to interlude careful and check out the order of this interlude our

self.

verse: many times

pre-chorus: x4

chorus: x8

Outro:

G|------------------------------------|-------|

D|------------------------------------|-------|

A|------------------------------------|-------|

E|-3-3-3-3-3-3-3-3-3-3-3-3-3-3--------|---0---|

there it is. hope you like it because this is fast and really fun to play.

Listen to song couple of times.

Get this song at:  amazon.com

Share your thoughts

0 Comments found