Red Hot Chili Peppers

Red Hot Chili Peppers - Rolling Sly Stone bass tab

Intro

Q=107

4/4

Gtr I

|-----------------|-----------------|-----------------|-------------------|

|-----------------|-----------------|-----------------|-------------------|

|---------------2-|-3-3-3-3-3-3-3-3-|-------------2-3-|-5-5-5-5-5-5-3-5-3-|

|-5-5-5-5-5-5-5---|-----------------|-3-3-3-3-3-3-----|-------------------|

|-----------------|-----------------|-------------------|-------------------|

|-----------------|-----------------|---------------2-1-|-------------5-x---|

|---------------2-|-3-3-3-3-3-3-3-3-|-------------------|-5-5-5-5-5S7-----3-|

|-5-5-5-5-5-5-5---|-----------------|-3-3-3-3-3-3-3-----|-------------------|

Verse

4x

||------------------|-----------------|-----------------|-------------------||

||o-----------------|-----------------|-----------------|------------------o||

||o-----------------|-3-3-3-3-3-3-3-3-|-----------------|-5-5-5-5-5-5-5-5--o||

||--5-5-5-5-5-5-5-5-|-----------------|-3-3-3-3-3-3-3-3-|-------------------||

Pre-Chorus

|-----------------|-----------------|-----------------|-----------------|

|-----------------|-----------------|-----------------|-----------------|

|---------------2-|-3-3-3-3-3-------|-------------2-3-|-5-5-3-3-2-2-3-3-|

|-5-5-5-5-5-5-5---|-----------0-1-2-|-3-3-3-3-3-3-----|-----------------|

|-------------------|-----------------|-----------------|------------------|

|---------------5---|-----------------|-----------------|------------------|

|-----------5h7---7-|-3-3-3-3-3-------|-------------2-3-|-5-5-5-5-5-5-5-5--|

|-5-5-5-5-5---------|-----------0-1-2-|-3-3-3-3-3-3-----|------------------|

Chorus

|---5-----------|------------------|---5-----------|------------------|

|--------x------|------------5-----|--------x------|---------5h7p5----|

|-3-------------|--------5h7---7--|-3-------------|---------------7-|

|------3---3-5--|-(5)--------------|------3---3-5--|-(5)--------------|

|---5-----------|------------|---5-----------|--------|

|--------x------|------------|--------x------|--------|

|-3-------------|------------|-3----------5--|-(5)----|

|------3---3-5--|-(5)--------|------3---3----|--------|

Interlude

|-----------------|-----------------|-----------------|--------------------|

|-----------------|-----------------|-----------------|---------------5-5--|

|-----------------|-3-3-3-3-3-3-3-3-|-----------------|-5-5-5-5-5-5h7------|

|-5-5-5-5-5-5-5-5-|-----------------|-3-3-3-3-3-3-3-3-|--------------------|

Verse 2

4x

||------------------|-----------------|-----------------|-------------------||

||o-----------------|-----------------|-----------------|------------------o||

||o-----------------|-3-3-3-3-3-3-3-3-|-----------------|-5-5-5-5-5-5-5-5--o||

||--5-5-5-5-5-5-5-5-|-----------------|-3-3-3-3-3-3-3-3-|-------------------||

Pre-Chorus

|-----------------|-----------------|-----------------|-----------------|

|-----------------|-----------------|-----------------|-----------------|

|---------------2-|-3-3-3-3-3-------|-------------2-3-|-5-5-3-3-2-2-3-3-|

|-5-5-5-5-5-5-5---|-----------0-1-2-|-3-3-3-3-3-3-----|-----------------|

|-------------------|-----------------|-----------------|------------------|

|---------------5---|-----------------|-----------------|------------------|

|-----------5h7---5-|-3-3-3-3-3-------|-------------2-3-|-5-5-5-5-5-5-5-5--|

|-5-5-5-5-5---------|-----------0-1-2-|-3-3-3-3-3-3-----|------------------|

Chorus

|---5-----------|--------------------|---5-----------|----------------|

|--------x------|--------------------|--------x------|---------5h7p=5-|

|-3-------------|--------------5h7p5-|-3-------------|----------------|

|------3---3-5--|-(5)----(5)-5-------|------3---3-5--|-(5)------------|

|---5-----------|------------|---5-----------|--------|

|--------x------|------------|--------x------|--------|

|-3-------------|------------|-3----------5--|-(5)----|

|------3---3-5--|-(5)--------|------3---3----|--------|

Bridge

|------------------|-19---19---------|

|---------------19-|-----------19-17-|

|-17---17----17----|-----------------|

|------------------|-----------------|

|-------------17----------|------------------|

|-15---17S19-----19-17-15-|------------------|

|-------------------------|-15---15----15-16-|

|-------------------------|------------------|

|------19---------|----------------19-|--------------------|------------------|

|--------------19-|------19-----19----|-15---17S19---17-15-|------------------|

|-17--------17----|-17-------17-------|--------------------|-15---15------15--|

|-----------------|-------------------|--------------------|-----------17-----|

|-----------------|-----------------|-------------------|---------------|

|-----------------|----------15-----|-15---15--17-19-15-|---------------|

|-17----------17--|-17----------17--|-------------------|-15---15---15--|

|------17--17-----|------17---------|-------------------|---------------|

|-------19--19-----------------19-|-(19)--(19)-19-----------------|

|----19--------19-----------19----|---------------19--------19-17-|

|-17--------------19p17--17-------|------------------19p17--------|

|---------------------------------|-------------------------------|

|-------------17----------|-----------------------------|

|-15---17S19-----19-17-15-|-----------------------------|

|-------------------------|-15-15-15-15--15-15-15-15----|

|-------------------------|-----------------------------|

Guitar Solo

|-----------------|-----------------|-----------------|-----------7----|

|-----------------|-----------------|-----------------|----------------|

|---------------2-|-3-3-3-3-3-3-3-3-|-------------2-3-|-5-5-5-5-5----5-|

|-5-5-5-5-5-5-5---|-----------------|-3-3-3-3-3-3-----|----------------|

|-----------------|-----------------|-------------------|-------------------|

|-----------------|-----------------|-------------------|-------------------|

|---------------2-|-3-3-3-3-3-3-3---|---------------7-6-|-5-5-5-5-5-5-3-5-3-|

|-5-5-5-5-5-5-5---|---------------2-|-3-3-3-3-3-3-3-----|-------------------|

Pre-Chorus

|-----------------|-----------------|-----------------|-----------------|

|-----------------|-----------------|-----------------|-----------------|

|---------------2-|-3-3-3-3-3-------|-------------2-3-|-5-5-3-3-2-2-3-3-|

|-5-5-5-5-5-5-5---|-----------0-1-2-|-3-3-3-3-3-3-----|-----------------|

|-----------------|-----------------|-----------------|-----------------|

|-----------------|-----------------|-----------------|-----------------|

|-------------7-5-|-3-3-3-3-3-------|-------------2-3-|-5-5-5-5-5-5-5-5-|

|-5-5-5-5-5-5-----|-----------0-1-2-|-3-3-3-3-3-3-----|-----------------|

Chorus

|---5-----------|--------------------|---5-----------|--------|

|--------5------|--------------------|--------5------|--------|

|-3-------------|--------------5h7p5-|-3-------------|--------|

|------3---3-5--|-(5)----(5)-5-------|------3---3-5--|-(5)----|

|---5-----------|------------|---5------------|----------------------|

|--------5------|------------|--------5-------|----------------------|

|-3-------------|------------|-3----------5-5-|-5-5-5-5-5-5-5-5--3---|

|------3---3-5--|-(5)--------|------3---3-----|----------------------|

|---5-----------|--------------------|---5-----------|---------------------|

|--------5------|--------------------|--------5------|-------5h7p5---------|

|-3-------------|--------------5h7p5-|-3-------------|--------------5------|

|------3---3-5--|-(5)----(5)-5-------|------3---3-5--|-(5)------------5-8--|

|---5-----------|------------|---5-----------|--------|

|--------5------|------------|--------5------|--------|

|-3-------------|------------|-3----------5--|-(5)----|

|------3---3-5--|-(5)--------|------3---3----|--------|

1/4 4/4

|---------|---|-----*|

|---------|---|-----*|

|---------|---|-----*|

|---------|---|-----*|

Get this song at:  amazon.com

Share your thoughts

0 Comments found