Red Hot Chili Peppers

Red Hot Chili Peppers - Roller coaster of love guitar tab

this is my first tab so go easy on me

opening/verse

----------------------------------|

----------------------------------|

10-10-8--8--7-7----7-7-7-8--10-10-|

12-12-10-10-9-9----9-9-9-10-12-12-|

----------------------------------|

----------------------------------|

----------------------------------|

----------------------------------|

10-10-8--8--7-7----7-7-7-8--10-10-|

12-12-10-10-9-9----9-9-9-10-12-12-|

----------------------------------|

----------------------------------|

----------------------------------|

----------------------------------|

10-10-8--8--7-7----7-7-7-8--10-10-|

12-12-10-10-9-9----9-9-9-10-12-12-|

----------------------------------|

----------------------------------|

----------------------------------|

----------------------------------|

10-10-8--8--7-7----7-7-7-8--10-10-|

12-12-10-10-9-9----9-9-9-10-12-12-|

----------------------------------|

----------------------------------|

----------------------------------|

----------------------------------|

10-10-8--8--7-7----7-7-7-8--10-10-|

12-12-10-10-9-9----9-9-9-10-12-12-|

----------------------------------|

----------------------------------|

----------------------------------|

----------------------------------|

10-10-8--8--7-7----7-7-7-8--10-10-|

12-12-10-10-9-9----9-9-9-10-12-12-|

----------------------------------|

----------------------------------|

----------------------------------|

----------------------------------|

10-10-8--8--7-7----7-7-7-8--10-10-|

12-12-10-10-9-9----9-9-9-10-12-12-|

----------------------------------|

----------------------------------|

----------------------------------|

----------------------------------|

10-10-8--8--7-7----7-7-7-8--10-10-|

12-12-10-10-9-9----9-9-9-10-12-12-|

----------------------------------|

----------------------------------|

zebailey

Get this song at:  amazon.com

Share your thoughts

0 Comments found