Red Hot Chili Peppers

Red Hot Chili Peppers - Righteous And The Wicked bass tab

Played on a 5-string bass.

s: slap

p: pop

h: hammer on

p: pull

x: muted note

/: slide up

\: slide down

Intro/Verse:

G:---------------------------------------------------------------------------------------

D:-0-0-0-0------------0-0-0-0----------2--0-0-0-0------------0-0-0-0----------2----------

A:---------2-0-2---------------2-0-2--------------2-0-2---------------2-0-2--------------

E:------------------------------------0---------------------------------------0----------

B:---------------0-0-0-----------------------------------0-0-0---------------------------

Chorus:

G:---------------------------------------------------------------------------------------

D:-------0---0----------------0---0------------------------------------------------------

A:-2---2---2---3-3-3-2--2---2---2---3-3-3-2----------------------------------------------

E:---------------------------------------------------------------------------------------

B:---3---------------------3-------------------------------------------------------------

Post-Chorus:

G:---------------------------------------------------------------------------------------

D:---------------------------------------------------------------------------------------

A:---------------------------------------------------------------------------------------

E:---------------------------------------------------------------------------------------

B:-7-7-5-4-4-2-1-0-1-2-2-2--7-7-5-4-4-2-1-0-1-2-2-2--------------------------------------

Repeat once.

After the second chorus, play the post-chorus, then do this:

G:---------------------------------------------------------------------------------------

D:-0-1-0--0-1-0--0-1-0-----------0-1-0--0-1-0--0-1-0-------------------------------------

A:-------2------2-------2-------0------2------2-------2------0---------------------------

E:-------------------------2-1-2------------------------2-1-2----------------------------

B:---------------------------------------------------------------------------------------

Repeat once, then do this:

G:---------------------------------------------------------------------------------------

D:-2-3-2---2-3-2--2-3-2-----------2-3-2---2-3-2--2-3-2-----------------------------------

A:-------4-------4-------4-------2-------4-------4-------4-------2-----------------------

E:-------------------------4-3-4---------------------------4-3-4-------------------------

B:---------------------------------------------------------------------------------------

Then finally do this:

G:---------------------------------------------------------------------------------------

D:-0-1-0--0-1-0--0-1-0-----------0-1-0--0-1-0--0-1-0-------------------------------------

A:-------2------2-------2-------0------2------2-------2------0---------------------------

E:-------------------------2-1-2------------------------2-1-2---0//19--------------------

B:-------------------------------------------------------------0-------------------------

"//" means make the slide really long.

If you have any comments or corrections, please let me know.

Thanks, and enjoy!!!

Get this song at:  amazon.com

Share your thoughts

0 Comments found