Red Hot Chili Peppers

Red Hot Chili Peppers - Rare Bass Solo bass tab

Artist: Red Hot Chili Peppers

Song: Rare bass solo

Tabbed by: Ebin

0:00

G|---(9)-|----------------------5h7-|-------------------5-|

D|---(7)-|----------------5-5-------|-------------5-5-----|

A|-------|----------5-5-7-----7-----|-------5-5-7-----7---|

E|-------|12-0---------------------|-0-------------------|

G|-------------------5h7-|-------------------|

D|-------------5-5-------|-------------------|

A|-------5-5-7-----7-----|-----------5-5-5h7-|

E|-0---------------------|-0-----------------|

G|-------------------5h7-|-------------------5-|

D|-------------5-5-------|-------------5-5-----|

A|-------5-5-7-----7-----|-------5-5-7-----7---|

E|-0---------------------|-0-------------------|

G|-------------------5h7-|---------------------|

D|-------------5-5-------|---------------------|

A|-------5-5-7-----7-----|-----------5-5-5-5-5-|

E|-0---------------------|-0-------------------|

x3

G|-----------------------|-----------|

D|---------------7---7h9-|---10---12-|

A|-----------7h9---9-----|-----------|

E|-7-7-7-7-7-------------|-----------|

x7

G|--------------------------------|-----------------------|

D|-----12-10----------10----10h12-|-----12-10----------10-|

A|-----------10-10h12----12-------|-----------10-10h12----|

E|-0------------------------------|-0---------------------|

G|--------------------------------|--------------------------|

D|-----13-11----------11----11h13-|-----13-11----------13-11-|

A|-----------11-11h13----13-------|-----------11-11h13-------|

E|-0------------------------------|-0------------------------|

G|--------------------------------|-----------------------|

D|-----13-11----------11----11h13-|-----13-11----------11-|

A|-----------11-11h13----13-------|-----------11-11h13----|

E|-0------------------------------|-0---------------------|

x3

G|--------------------------------|-----------------------|

D|-----12-10----------10----10h12-|-----12-10----------10-|

A|-----------10-10h12----12-------|-----------10-10h12----|

E|-0------------------------------|-0---------------------|

G|-(5/7-9-7-9-10-9-10-12-10-12-14|--14b)-----|

D|-------------------------------|-----------|

A|-------------------------------|------(12)-|

E|-------------------------------|-----------|

G|--------------------------------|-----------------------|

D|-----12-10----------10----10h12-|-----12-10----------10-|

A|-----------10-10h12----12-------|-----------10-10h12----|

E|-0------------------------------|-0---------------------|

G|--------------------------------|------------------------------|

D|-----12-10----------10----10h12-|-----12-10--------------10h12-|

A|-----------10-10h12----12-------|-----------10-10h12-----------|

E|-0------------------------------|-0------------------0-0-------|

x3

G|--------------------------------|---------------------------|

D|-----12-10----------10----10h12-|-----12-10----------10b(1)-|

A|-----------10-10h12----12-------|-----------10-10h12--------|

E|-0------------------------------|-0-------------------------|

G|(-5h7---------2-0-3---7-5-----0-3-2-----------7-0-3---3-2-0-7-5-----)|

D|(----0-2-3-0-------0-----2-3-------0-3-5-3-0-------0-----------3-2-0)|

A|---------------------------------------------------------------------|

E|---------------------------------------------------------------------|

G|(---3-2-0-7-5-2-3-------7-5-2-3-2---7-5-2-0-3-2-0-------3-2-0-7-5-3-2-0-----)|

D|(0---------------0-3-2-----------0---------------3-2-0-----------------3-2-0)|

A|-----------------------------------------------------------------------------|

E|-----------------------------------------------------------------------------|

G|-----|-------|-(9)|

D|-----|-------|-(7)|

A|-----|-(7b)--|----|

E|-0-0-|-------|----|

x3

G|-------------------5h7-|-------------------5-|

D|-------------5-5-------|-------------5-5-----|

A|-------5-5-7-----7-----|-------5-5-7-----7---|

E|-0---------------------|-0-------------------|

G|-------------------5h7-|-----------------|

D|-------------5-5-------|-----------------|

A|-------5-5-7-----7-----|---------5-5h7---|

E|-0-x-x-----------------|-0-x-x-x-------5-|

Everything in brackets isnt slapped. The rest is. This songs like 3 min long

so slap fast.

Get this song at:  amazon.com

Share your thoughts

0 Comments found