Red Hot Chili Peppers

Red Hot Chili Peppers - Quixotic Elixer bass tab

VERSE:

G:|-----------------|

D:|-----------------|

A:|-2~~~--2h4-------|

E:|------------5~~~-|

G:|-----------------|

D:|-----------------|

A:|-2~~~--2h4-------|

E:|------------5--2-| 2x

G:|-----------------------|

D:|------------------0h2--|

A:|---------2h4----4------|

E:|--4h5-2------2---------|

G:|-----------------|

D:|-----------------|

A:|-2~~~--2h4-------|

E:|------------5~~~-|

G:|-----------------|

D:|-----------------|

A:|-2~~~--2h4-------|

E:|------------5--2-| 2x

G:|--------------------6-7h9-|

D:|----------------7-9-------|

A:|------2-4-5-7h9-----------|

E:|--4h5---------------------|

CHORUS:

G:|-------------2-2-------|

D:|-------4-4---------2-2-|

A:|--2-2------------------|

E:|-----------------------| 3x

G:|-------------2~~~~-----|

D:|-------4-4--------2~~~-|

A:|--2-2------------------|

E:|-----------------------|

Pickup to Last Verse

G:|--------------|

D:|-------4p2----|

A:|---2h4-----4--|

E:|--------------|

OUTRO:

G:|--------------------------------------|

D:|---------------0000---------222-------|

A:|---------0000--------4444-------222---|

E:|--2222--------------------------------| 3x

G:|----------------------------------------------|

D:|---222------222------222------222-------------|

A:|-------222------222------222------222------(4)| play the (4) the last time only

E:|----------------------------------------------|

Get this song at:  amazon.com sheetmusicplus.com

Share your thoughts

0 Comments found