Red Hot Chili Peppers

Red Hot Chili Peppers - Power Of Equality guitar tab

This is the right version of Power Of Equality. I tabbed the whole thing so there is no

Enjoy!!

-Guitarlegend89 (webmaster at tabs-database.com.com)

#####################

~Power Of Equality~

#####################

Tuning

------

eb

B

G

D

A

E

Intro And Rhythm

___________________________________________________________

|1

eb|0--0-0-0-0-0--0-0-0--0-0-0-0-|0--0-0-0-0-0--0-0-0--0-0-0-0-|

B||7--5-5-5-5-7--5-5-7--5-5-5-5-|7--5-5-5-5-7--5-5-7--5-5-5-5-|

G||6----------6------6----------|6----------6------6----------|

D||-----------------------------|-----------------------------|

A||-----------------------------|-----------------------------|

E||-----------------------------|-----------------------------|

________________________________________________________________

eb|0--0-0-0-0-0--0-0-0--0-0-0-0-|0--0-0-0-0-0------------------|

B||7--5-5-5-5-7--5-5-7--5-5-5-5-|7--4-4-4-4-7------------------|

G||6----------6------6----------|6----------6------------------|

D||-----------------------------|------------------------------|

A||-----------------------------|-------------6----------------|

E||-----------------------------|------------------------------|

_______________________________________________________________

eb|0--0-0-0-0-0--0-0-0--0-0-0-0-|0--0-0-0-0-0--0-0-0--0-0-0-0-|

B||7--5-5-5-5-7--5-5-7--5-5-5-5-|7--5-5-5-5-7--5-5-7--5-5-5-5-|

G||6----------6------6----------|6----------6------6----------|

D||-----------------------------|-----------------------------|

A||-----------------------------|-----------------------------|

E||-----------------------------|-----------------------------|

___________________________________________________________________|

|2 |

eb|0--0-0-0-0-0--0-0-0--0-0-0-0-|0--0-0-0-0-0-0-0-0-0-0-0-0-0-0-||

B||7--5-5-5-5-7--5-5-7--5-5-5-5-|7--5-5-5-5-5-5-5-5-5-5-5-5-5-5*||

G||6----------6------6----------|6------------------------------||

D||-----------------------------|-------------------------------||

A||-----------------------------|------------------------------*||

E||-----------------------------|-------------------------------||

eb|6---6---6---6---6---6---6---6|

B||5---5---5---5---5---5---5---5|

G||5---5---5---5---5---5---5---5|

D||4---4---4---4---4---4---4---4|

A||-----------------------------|

E||-----------------------------|

CHORUS

eb|-------------------------------------------|----------------------------|

B||-------------------------x-9-11----11-9----|------------------------x-9-|

G||-6-6-6-5-5-5-4-----------x-9-11-11-11-9----|6-6-6-5-5-5-4-----------x-9-|

D||----------------6--5--4-----------------11-|---------------6--5--4------|

A||-------------------------------------------|----------------------------|

E||-------------------------------------------|----------------------------|

eb|-------------|-------------------------------------------|---------------|

B||11----11p9---|-------------------------x-9-11----11-9----|---------------|

G||11-11-11p9---|-6-6-6-5-5-5-4-----------x-9-11-11-11-9----|-6-6-6-5-5-5-4-|

D||-------------|----------------6--5--4-----------------11-|---------------|

A||-------------|-------------------------------------------|---------------|

E||-------------|-------------------------------------------|---------------|

eb|-----------------||

B||-----------------||

G||-----------------||

D||-6--5--4~~~~~~~~-||

A||-----------------||

E||-----------------||

RHYTHM

____________________________________________________________

|1

eb|-0--0-0-0-0-0--0-0-0--0-0-0-0-|0--0-0-0-0-0--0-0-0--0-0-0-0-|

B||*7--5-5-5-5-7--5-5-7--5-5-5-5-|7--5-5-5-5-7--5-5-7--5-5-5-5-|

G||-6----------6------6----------|6----------6------6----------|

D||------------------------------|-----------------------------|

A||*-----------------------------|-----------------------------|

E||------------------------------|-----------------------------|

________________________________________________________________

eb|0--0-0-0-0-0--0-0-0--0-0-0-0-|0--0-0-0-0-0------------------|

B||7--5-5-5-5-7--5-5-7--5-5-5-5-|7--4-4-4-4-7------------------|

G||6----------6------6----------|6----------6------------------|

D||-----------------------------|------------------------------|

A||-----------------------------|-------------6----------------|

E||-----------------------------|------------------------------|

_______________________________________________________________

eb|0--0-0-0-0-0--0-0-0--0-0-0-0-|0--0-0-0-0-0--0-0-0--0-0-0-0-|

B||7--5-5-5-5-7--5-5-7--5-5-5-5-|7--5-5-5-5-7--5-5-7--5-5-5-5-|

G||6----------6------6----------|6----------6------6----------|

D||-----------------------------|-----------------------------|

A||-----------------------------|-----------------------------|

E||-----------------------------|-----------------------------|

_________________________________________________________________

|2 |

eb|0--0-0-0-0-0--0-0-0--0-0-0-0-|0--0-0-0-0-0-0-0-0-0-0-0-0-0-0-||

B||7--5-5-5-5-7--5-5-7--5-5-5-5-|7--5-5-5-5-5-5-5-5-5-5-5-5-5-5*||

G||6----------6------6----------|6------------------------------||

D||-----------------------------|-------------------------------||

A||-----------------------------|------------------------------*||

E||-----------------------------|-------------------------------||

eb|6---6---6---6---6---6---6---6|

B||5---5---5---5---5---5---5---5|

G||5---5---5---5---5---5---5---5|

D||4---4---4---4---4---4---4---4|

A||-----------------------------|

E||-----------------------------|

CHORUS

eb|-------------------------------------------|----------------------------|

B||-------------------------x-9-11----11-9----|------------------------x-9-|

G||-6-6-6-5-5-5-4-----------x-9-11-11-11-9----|6-6-6-5-5-5-4-----------x-9-|

D||----------------6--5--4-----------------11-|---------------6--5--4------|

A||-------------------------------------------|----------------------------|

E||-------------------------------------------|----------------------------|

eb|-------------|-------------------------------------------|---------------|

B||11----11p9---|-------------------------x-9-11----11-9----|---------------|

G||11-11-11p9---|-6-6-6-5-5-5-4-----------x-9-11-11-11-9----|-6-6-6-5-5-5-4-|

D||-------------|----------------6--5--4-----------------11-|---------------|

A||-------------|-------------------------------------------|---------------|

E||-------------|-------------------------------------------|---------------|

eb|-----------------||

B||-----------------||

G||-----------------||

D||-6--5--4~~~~~~~~-||

A||-----------------||

E||-----------------||

GUITAR SOLO

Guitar 1

eb|----------14-14---13-13---6--|-------------------13-13-13---6--|

B||------------------12-12---5--|----------------------12-12---5--|

G||7~~p~~5---10------12---------|-7~~p~~5---10/12------12---------|

D||-----------------------------|-----------8-/10-----------------|

A||-----------------------------|---------------------------------|

E||-----------------------------|---------------------------------|

Guitar 2 (i prefer guitar 2 for solo)

eb|-----------------------------|---------------------------------|

B||-----------------------------|---------------------------------|

G||10---------------------------|-13-12--------------------10-----|

D||----12---------------10-12---|------------------------12--10h12|

A||-----------------------------|---------------------------------|

E||-----------------------------|---------------------------------|

Guitar 1

eb|----------14-14---13-13---6--|-------------------13-13-13---6--|

B||------------------12-12---5--|----------------------12-12---5--|

G||7~~p~~5---10------12---------|-7~~p~~5---10-12------12---------|

D||-----------------------------|-----------8--10-----------------|

A||-----------------------------|---------------------------------|

E||-----------------------------|---------------------------------|

Guitar 2

eb|-----------------------------|---------------------------------|

B||-----------------------------|13-15--13-15---------------------|

G||10---------------------------|---------------------------------|

D||---12------------------------|---------------------------------|

A||-----------------------------|---------------------------------|

E||-----------------------------|---------------------------------|

Guitar 1

eb|--------------------13-13--6--|-------------------13-13------6--|

B||--------------------12-12--5--|-------------------12-12------5--|

G||-7~~p~~5---10/12----12-12-----|7~~p~~5---10/12----12-12---------|

D||-----------8-/10--------------|----------8-/10------------------|

A||------------------------------|---------------------------------|

E||------------------------------|---------------------------------|

Guitar 2

eb|14-14-------------------------|---------------------------------|

B||------13-15---10-12-----------|---------------------------------|

G||-----------------------12-10--|---------------------------------|

D||------------------------------|---10--------------12-10-13-12---|

A||------------------------------|12-------------------------------|

E||------------------------------|---------------------------------|

Guitar 1

eb|--------------------13-13--6--|-----------14-14---13-13-13-12---|

B||--------------------12-12--5--|-------------------12-12-12-12---|

G||-7~~p~~5---10/12----12-12-----|-7~~p~~5---10-10---12-12-12-13---|

D||-----------8-/10--------------|---------------------------------|

A||------------------------------|---------------------------------|

E||------------------------------|---------------------------------|

Guitar 2

eb|----------------------------14|-----------------------------------------|

B||------------------------------|-----15-13-15-15-13-15-15-13-15---13/15\\-|

G||------------------------------|-----------------------------------------|

D||--------------14-12-10--10----|-----------------------------------------|

A||----------------------12------|-----------------------------------------|

E||------------------------------|-----------------------------------------|

RHYTHM

eb|0--0-0-0-0-0--0-0-0--0-0-0-0-|0--0-0-0-0-0--0-0-0--0-0-0-0-|

B||7--5-5-5-5-7--5-5-7--5-5-5-5-|7--5-5-5-5-7--5-5-7--5-5-5-5-|

G||6----------6------6----------|6----------6------6----------|

D||-----------------------------|-----------------------------|

A||-----------------------------|-----------------------------|

E||-----------------------------|-----------------------------|

eb|0--0-0-0-0-0--0-0-0--0-0-0-0-|0--0-0-0-0-0-0-0-0-0-0-0-0-0-0-|

B||7--5-5-5-5-7--5-5-7--5-5-5-5-|7--5-5-5-5-5-5-5-5-5-5-5-5-5-5-|

G||6----------6------6----------|6------------------------------|

D||-----------------------------|-------------------------------|

A||-----------------------------|-------------------------------|

E||-----------------------------|-------------------------------|

eb|0--0-0-0-0-0--0-0-0--0-0-0-0-|0--0-0-0-0-0--0-0-0--0-0-0-0-|

B||7--5-5-5-5-7--5-5-7--5-5-5-5-|7--5-5-5-5-7--5-5-7--5-5-5-5-|

G||6----------6------6----------|6----------6------6----------|

D||-----------------------------|-----------------------------|

A||-----------------------------|-----------------------------|

E||-----------------------------|-----------------------------|

eb|0--0-0-0-0-0--0-0-0--0-0-0-0-|0--0-0-0-0-0------------------|

B||7--5-5-5-5-7--5-5-7--5-5-5-5-|7--4-4-4-4-7------------------|

G||6----------6------6----------|6----------6------------------|

D||-----------------------------|------------------------------|

A||-----------------------------|-------------6----------------|

E||-----------------------------|------------------------------|

eb|0--0-0-0-0-0--0-0-0--0-0-0-0-|0--0-0-0-0-0--0-0-0--0-0-0-0-|

B||7--5-5-5-5-7--5-5-7--5-5-5-5-|7--5-5-5-5-7--5-5-7--5-5-5-5-|

G||6----------6------6----------|6----------6------6----------|

D||-----------------------------|-----------------------------|

A||-----------------------------|-----------------------------|

E||-----------------------------|-----------------------------|

eb|0--0-0-0-0-0--0-0-0--0-0-0-0-|6---6---6---6---6---6---6---6|

B||7--5-5-5-5-7--5-5-7--5-5-5-5-|5---5---5---5---5---5---5---5|

G||6----------6------6----------|5---5---5---5---5---5---5---5|

D||-----------------------------|4---4---4---4---4---4---4---4|

A||-----------------------------|-----------------------------|

E||-----------------------------|-----------------------------|

CHORUS

eb|-------------------------------------------|----------------------------|

B||-------------------------x-9-11----11-9----|------------------------x-9-|

G||-6-6-6-5-5-5-4-----------x-9-11-11-11-9----|6-6-6-5-5-5-4-----------x-9-|

D||----------------6--5--4-----------------11-|---------------6--5--4------|

A||-------------------------------------------|----------------------------|

E||-------------------------------------------|----------------------------|

eb|-------------|-------------------------------------------|---------------|

B||11----11p9---|-------------------------x-9-11----11-9----|---------------|

G||11-11-11p9---|-6-6-6-5-5-5-4-----------x-9-11-11-11-9----|-6-6-6-5-5-5-4-|

D||-------------|----------------6--5--4-----------------11-|---------------|

A||-------------|-------------------------------------------|---------------|

E||-------------|-------------------------------------------|---------------|

eb|-----------------||

B||-----------------||

G||-----------------||

D||-6--5--4~~~~~~~~-||

A||-----------------||

E||-----------------||

BRIDGE

Guitar 1

eb|-0--0-0-0-0-0--0-0-0--0-0-0-0-|0--0-0-0-0-0--0-0-0--0-0-0-0--|

B||-7--5-5-5-5-7--5-5-7--5-5-5-5-|7--5-5-5-5-7--5-5-7--5-5-5-5--|

G||-6----------6------6----------|6----------6------6-----------|

D||------------------------------|------------------------------|

A||------------------------------|------------------------------|

E||------------------------------|------------------------------|

Guitar 2

Keep holding bend till next 1 1/2 measure v

eb|------------------------------|------------------------------|

B||15b-----------(15)-15(15)-15--|(15)------15(15)---------15---|

G||------------------------------|------------------------------|

D||------------------------------|------------------------------|

A||------------------------------|------------------------------|

E||------------------------------|------------------------------|

Guitar 1

eb|0--0-0-0-0-0--0-0-0--0-0-0-0-|0--0-0-0-0-0------------------|

B||7--5-5-5-5-7--5-5-7--5-5-5-5-|7--4-4-4-4-7------------------|

G||6----------6------6----------|6----------6------------------|

D||-----------------------------|------------------------------|

A||-----------------------------|-------------6----------------|

E||-----------------------------|------------------------------|

Guitar 2

eb|------------------------------|-----------------------------|

B||(15)-------15b-----------(15)-|(15)-------------------------|

G||------------------------------|-----------------------------|

D||------------------------------|-----------------------------|

A||------------------------------|-----------------------------|

E||------------------------------|-----------------------------|

RHYTHM

eb|0--0-0-0-0-0--0-0-0--0-0-0-0-|0--0-0-0-0-0--0-0-0--0-0-0-0-|

B||7--5-5-5-5-7--5-5-7--5-5-5-5-|7--5-5-5-5-7--5-5-7--5-5-5-5-|

G||6----------6------6----------|6----------6------6----------|

D||-----------------------------|-----------------------------|

A||-----------------------------|-----------------------------|

E||-----------------------------|-----------------------------|

eb|0--0-0-0-0-0--0-0-0--0-0-0-0-|0--0-0-0-0-0-0-0-0-0-0-0-0-0-0-|

B||7--5-5-5-5-7--5-5-7--5-5-5-5-|7--5-5-5-5-5-5-5-5-5-5-5-5-5-5-|

G||6----------6------6----------|6------------------------------|

D||-----------------------------|-------------------------------|

A||-----------------------------|-------------------------------|

E||-----------------------------|-------------------------------|

eb|0--0-0-0-0-0--0-0-0--0-0-0-0-|0--0-0-0-0-0--0-0-0--0-0-0-0-|

B||7--5-5-5-5-7--5-5-7--5-5-5-5-|7--5-5-5-5-7--5-5-7--5-5-5-5-|

G||6----------6------6----------|6----------6------6----------|

D||-----------------------------|-----------------------------|

A||-----------------------------|-----------------------------|

E||-----------------------------|-----------------------------|

eb|0--0-0-0-0-0--0-0-0--0-0-0-0-|0--0-0-0-0-0--0-0-0--0-0-0-0-|

B||7--5-5-5-5-7--5-5-7--5-5-5-5-|7--5-5-5-5-7--5-5-7--5-5-5-5-|

G||6----------6------6----------|6----------6------6----------|

D||-----------------------------|-----------------------------|

A||-----------------------------|-----------------------------|

E||-----------------------------|-----------------------------|

eb|0--0-0-0-0-0--0-0-0--0-0-0-0-|0--0-0-0-0-0--0-0-0--0-0-0-0-|

B||7--5-5-5-5-7--5-5-7--5-5-5-5-|7--5-5-5-5-7--5-5-7--5-5-5-5-|

G||6----------6------6----------|6----------6------6----------|

D||-----------------------------|-----------------------------|

A||-----------------------------|-----------------------------|

E||-----------------------------|-----------------------------|

eb|0--0-0-0-0-0--0-0-0--0-0-0-0-|0--0-0-0-0-0------------------|

B||7--5-5-5-5-7--5-5-7--5-5-5-5-|7--4-4-4-4-7------------------|

G||6----------6------6----------|6----------6------------------|

D||-----------------------------|------------------------------|

A||-----------------------------|-------------6----------------|

E||-----------------------------|------------------------------|

OUTRO

eb|-----------------------------|------------------------------|

B||-----------------------------|------------------------------|

G||-----------------------------|------------------------------|

D||-----------------------------|------------------------------|

A||6----------------------------|------------------------------|

E||-----------------------------|------------------------------|

eb|0-0-0-0-0-0-0-0-0-0-0-0-0-0-0-0|-0-0-0-0-0-0-0/0-0-0-0-0-0---0|

B||7-7-7-7-7-7-7-7-7-7-7-7-7-7-7-7|-7-7-7-7-7-7-7/8-8-8-8-8-8----|

G||6-6-6-6-6-6-6-6-6-6-6-6-6-6-6-6|-6-6-6-6-6-6-6/9-9-9-9-9-9-8--|

D||-------------------------------|------------------------------|

A||-------------------------------|------------------------------|

E||-------------------------------|------------------------------|

eb|-0-0-0-0-0-0-0-0-0-0-0-0-0-0-0-0|-0-0-0-0-0-0-0-0-0-0-0-0-0-0-0-0|

B||-7-7-7-7-7-7-6-6-6-5-5-5-5-5-5-5|-5-5-5-5-5-5-5-5-5-5-5-5-5-5-5-5|

G||-6-6-6-6-6-6-5-5-5-6-6-6-6-6-6-6|-6-6-6-6-6-6-6-6-6-6-6-6-6-6-6-6|

D||--------------------------------|--------------------------------|

A||--------------------------------|--------------------------------|

E||--------------------------------|--------------------------------|

eb|0-0-0-0-0-0-0-0-0-0-0-0-0-0-0-0|-0-0-0-0-0-0-0-0-0-0-0-0-0-0-0-0-|

B||7-7-7-7-7-7-7-7-7-7-7-7-7-7-7-7|-7-7-7-7-7-7-7-7-8-8-8-8-8-8-8-8-|

G||6-6-6-6-6-6-6-6-6-6-6-6-6-6-6-6|-6-6-6-6-6-6-6-6-9-9-9-9-9-9-9-9-|

D||-------------------------------|---------------------------------|

A||-------------------------------|---------------------------------|

E||-------------------------------|---------------------------------|

eb|-0-0-0-0-0-0-0-0-0-0-0-0-0-0-0-0|-0-0-0-0-0-0-0-0----------------|

B||-7-7-7-7-7-7-6-6-6-5-5-5-5-5-5-5|-5-5-5-5-5-5-5-5----------------|

G||-6-6-6-6-6-6-5-5-5-6-6-6-6-6-6-6|-6-6-6-6-6-6-6-6----------------|

D||--------------------------------|-------------------4-3-(3)-2----|

A||--------------------------------|-----------------5--------------|

E||--------------------------------|--------------------------------|

##########

~LEGEND~

##########

( )-ghost note

h-Hammer-on

p-Pull-off

~~-Vibrato

x-Dead Note

/-Slide up

\\-Slide downAdded by tabs-database.com and our distinguished partners

Get this song at:  amazon.com

Share your thoughts

0 Comments found