Red Hot Chili Peppers

Red Hot Chili Peppers - Parrallel Universe bass tab

This is the song 100%.You can use a pick if you want but flea just

uses his thumb and index finger as if he's holding a pick to play

the notes.

Intro

G|-----------------------------------------------------------------------------

D|10-10-10-10-10-10-10-10-10-10-10-10-10-10-10-10-8-8-8-8-8-8-8-8-8-8-8-8-8-8-8

A|-----------------------------------------------------------------------------

E|-----------------------------------------------------------------------------

G|----------------------------------------------------------------------------

D|-8-8-8-8-8-8-8-8-8-8-8-8-8-8-8-8-8-12-12-12-12-12-12-12-12-12-12-12-12-12-12

A|----------------------------------------------------------------------------

E|----------------------------------------------------------------------------

G|----------------------------------------------------------------------------

D|-12-12-13-13-13-13-13-13-13-13-13-13-13-13-13-13-13-------------------------

A|----------------------------------------------------10-10-10-10-10-10-10-10-

E|----------------------------------------------------------------------------

G|-------------------------12-12-12-12-10-10-10-10-------------------------|

D|-------------------------------------------------13-13-13-13-12-12-12-12-|

A|-10-10-10-10-10-10-10-10-------------------------------------------------|

E|-------------------------------------------------------------------------|

Chorus

G|-----------------------------------------------------------------------------

D|10-10-10-10-10-10-10-10-10-10-10-10-10-10-------------------------------13-13

A|------------------------------------------10-10-11-11-11-11-11-11-11-11------

E|-----------------------------------------------------------------------------

G|----------------------------------------------------------------------------

D|-13-13-13-13-13-13----------------------------------------------------------

A|-------------------10-10-10-10-10-10-10-10-10-10-10-10-10-10-10-10-10-10-10-

E|----------------------------------------------------------------------------

G|--------------------------------------|

D|--------------------------------------|

A|10-10-10-10-10-10-10-10-10-10-10-10-10|

E|--------------------------------------|

Solo

G|-------------------------------------------|

D|10-10-10-10--------------------------------|

A|------------11-11-11-11-10-10-10-10-8-8-8-8|

E|-------------------------------------------|

By phil.

Get this song at:  amazon.com

Share your thoughts

0 Comments found