Red Hot Chili Peppers

Red Hot Chili Peppers - Parallel Universe Bass guitar tab

-------------------------------------------------------------------------------

Parallel Universe - Red Hot Chili Peppers

-------------------------------------------------------------------------------

Tabbed By : Jared Cope

e-mail: webmaster at tabs-database.com.com , AIM : FordMustang5oH

Tuning: Standard, EADG, Flea plays this song picked, but its just as easy without.

- MAIN VERSE: Beginning to "Deep inside of a parallel universe..." : (0:00-0:50)

G|---------------------------------------------------------------------------|

D|10-10-10-10-10-10-10-10-10-10-10-10-10-10-10-10-10-10-10-10-10-10-10-10-10-|

A|---------------------------------------------------------------------------|

E|---------------------------------------------------------------------------|

G|---------------------------------------------------------------------------|

D|10-10-10-10-10-10-10-8-8-8-8-8-8-8-8-8-8-8-8-8-8-8-8-8-8-8-8-8-8-8-8-8-8-8-|

A|---------------------------------------------------------------------------|

E|---------------------------------------------------------------------------|

G|---------------------------------------------------------------------------|

D|8-8-8-8-12-12-12-12-12-12-12-12-12-12-12-12-12-12-12-12-13-13-13-13-13-13--|

A|---------------------------------------------------------------------------|

E|---------------------------------------------------------------------------|

G|---------------------------------------------------------------------------|

D|13-13-13-13-13-13-13-13-13-13----------------------------------------------|

A|------------------------------10-10-10-10-10-10-10-10-10-10-10-10-10-10-10-|

E|---------------------------------------------------------------------------|

G|---12-12-12-12-12-12-12-12-10-10-10-10-10-10-10-10-------------------------|

D|---------------------------------------------------13-13-13-13-13-13-13-13 |

A|10-------------------------------------------------------------------------|

E|---------------------------------------------------------------------------|

G|---------------------------------------------------------------------------|

D|12-12-12-12-12-12-12-12----------------------------------------------------|

A|---------------------------------------------------------------------------|

E|---------------------------------------------------------------------------|

- CHORUS: "Can't stop a sidewinder...." : (0:50-1:05)

G|---------------------------------------------------------------------------|

D|10-10-10-10-10-10-10-10-10-10-10-10-10-10-10-10----------------------------|

A|------------------------------------------------10-10-10-10-10-10-10-10----|

E|---------------------------------------------------------------------------|

G|---------------------------------------------------------------------------|

D|------------------------------------------------13-13-13-13-13-13-13-13-13-|

A|11-11-11-11-11-11-11-11-11-11-11-11-11-11-11-11----------------------------|

E|---------------------------------------------------------------------------|

G|---------------------------------------------------------------------------|

D|13-13-13-13-13-13-13-------------------------------------------------------|

A|---------------------10-10-10-10-10-10-10-10-10-10-10-10-10-10-10-10-10-10-|

E|---------------------------------------------------------------------------|

G|---------------------------------------------------------------------------|

D|---------------------------------------------------------------------------|

A|10-10-10-10-10-10----------------------------------------------------------|

E|---------------------------------------------------------------------------|

- BREAKDOWN: No lyrics here, mostly bass, some guitar : (2:06-2:21)

G|---------------------------------------------------------------------------|

D|10-10-10-10-------------------------8-8-8-8--------------------------------|

A|------------10-10-10-10-11-11-11-11----------------------------------------|

E|---------------------------------------------------------------------------|

- ENDING FILL #1: Verse after Anthony screams @ 3:36, played again at 4:06

G|---------------------------------------------------------------------------|

D|10-10-10-10-10-10-10-10-10-10-10-10-10-10-10-10-10-10-10-10-10-10-10-10-10-|

A|---------------------------------------------------------------------------|

E|---------------------------------------------------------------------------|

G|---------------------------------------------------------------------------|

D|10-10-10-10-10-10-10-12-12-8-8-8-8-8-8-8-8-8-8-8-8-8-8-8-8-8-8-8-8-8-8-8-8-|

A|----------------------^-^--------------------------------------------------|

E|----------------------^-^-different-here-----------------------------------|

G|---------------------------------------------------------------------------|

D|8-8-8-8-8-8-8-12-12-12-12-12-12-12-12-12-12-12-12-12-12-12-12-13-13-13-13--|

A|---------------------------------------------------------------------------|

E|---------------------------------------------------------------------------|

G|---------------------------------------------------------------------------|

D|13-13-13-13-13-13-13-13-13-13-13-13----------------------------------------|

A|------------------------------------10-10-10-10-10-10-10-10-10-10-10-10-10-|

E|---------------------------------------------------------------------------|

G|---------12-12-12-12-12-12-12-12-10-10-10-10-10-10-10-10-------------------|

D|---------------------------------------------------------13-13-13-13-13-13-|

A|10-10-10-------------------------------------------------------------------|

E|---------------------------------------------------------------------------|

G|---------------------------------------------------------------------------|

D|13-13-12-12-12-12-12-12-12-12----------------------------------------------|

A|---------------------------------------------------------------------------|

E|---------------------------------------------------------------------------|

- ENDING FILL #2: This is the small change in the verse played @ 3:51

G|---------------------------------------------------------------------------|

D|10-10-10-10-10-10-10-10-10-10-10-10-10-10-10-10-10-10-10-10-10-10-10-10-10-|

A|---------------------------------------------------------------------------|

E|---------------------------------------------------------------------------|

G|---------------------------------------------------------------------------|

D|10-10-10-10-10-10-10-------------8-8-8-8-8-8-8-8-8-8-8-8-8-8-8-8-8-8-8-8-8-|

A|---------------------10-10-10-10-------------------------------------------|

E|----------------------^--^--^--^--different-here---------------------------|

G|---------------------------------------------------------------------------|

D|8-8-8-8-8-8-8-8-8-8-12-12-12-12-12-12-12-12-12-12-12-12-12-12-12-12-13-13--|

A|---------------------------------------------------------------------------|

E|---------------------------------------------------------------------------|

G|---------------------------------------------------------------------------|

D|13-13-13-13-13-13-13-13-13-13-13-13-13-13----------------------------------|

A|------------------------------------------10-10-10-10-10-10-10-10-10-10-10-|

E|---------------------------------------------------------------------------|

G|---------------12-12-12-12-12-12-12-12-10-10-10-10-10-10-10-10-------------|

D|---------------------------------------------------------------13-13-13-13-|

A|10-10-10-10-10-------------------------------------------------------------|

E|---------------------------------------------------------------------------|

G|---------------------------------------------------------------------------|

D|13-13-13-13-12-12-12-12-12-12-12-12-10-10-10-10----------------------------|

A|------------------------------------^--^--^--^--bend-these-last-notes------|

E|---------------------------------------------------------------------------|

And thats it, the exact number of notes may be off slightly but the notes are

played so fast its kinda hard to count them. Also, feel free to email me with any comments you might have.

Added by tabs-database.com and our distinguished partners

Get this song at:  amazon.com

Share your thoughts

0 Comments found