Red Hot Chili Peppers

Red Hot Chili Peppers - Overfunk (b-side) (corrected) bass tab

VERSE:

G:|-------7-7p6-------6-6---|

D:|-----------------------9-|

A:|-------------------------|

E:|---5h7--------5h7--------|

G:|------7-7p6------6-6-----|

D:|---------------------7h9-|

A:|-------------------------|

E:|--5h7--------5h7---------|

G:|------7-7p6------6-6---|

D:|---------------------9-|

A:|-----------------------|

E:|---5h7-------5h7-------|

G:|------7-7p6------9--6-----|

D:|----------------------7h9-|

A:|--------------------------|

E:|--5h7--------5h7----------|

5x

CHORUS:

G:|----------------------|

D:|----------------------|

A:|----------------------|

E:|-0--0-3-000--3--5--2--|

G:|------------------|

D:|------------------|

A:|------------------|

E:|-0--0-3-000--3--2-|

G:|----------------------|

D:|----------------------|

A:|----------------------|

E:|-0--0-3-000--3--5--2--|

G:|-----------------------|

D:|-----------------------|

A:|-----------------------|

E:|-0--0-3-000--7-5-55-75-|

2x

Verse 5x

Chorus 2x

BRIDGE:

G:|---------------------|

D:|-9~~~-7~~~-9~~~-7~~~-|

A:|---------------------|

E:|---------------------|

G:|---------------------|

D:|---------------------|

A:|---------------------|

E:|-7~~~-5~~~-7~~~-5~~~-|

G:|---------------------|

D:|-9~~~-7~~~-9~~~-7~~~-|

A:|---------------------|

E:|---------------------|

G:|---------------------|

D:|---------------------|

A:|---------------------|

E:|-7~~~-5~~~-7~~~-5~~~-|

Verse 2x

Get this song at:  amazon.com

Share your thoughts

0 Comments found