Red Hot Chili Peppers

Red Hot Chili Peppers - Otherside Perfect Bass Tab bass tab

Song:Otherside

Artist:Red hot chili peppers

Album:Californication

I'm completly sure this is the perfect version, it also has every

single variation...

Intro:

G|--------------------------------------------|

D|--------------------------------------------|

A|----------------------3--3--3-3-------------|

E|--5--5--5-3-1--1--1-3-----------0-3--3--3---|

Verse #1:

G|------------------------------------------------|

D|------------------------------------------------| x3

A|--------------------------3--3--3-3-------------|

E|--5--5--5-5-3-1--1--1-1-3-----------0-3--3--3-3-|

G|-----------------------------|

D|-----------------------------| x3

A|---------------5/7--7-7--7-7-|

E|-5--5-5--5-5-5---------------|

G|--------------------|

D|--------------------|

A|--------------------|

E|-3~-----3/5~--------|

Verse #2: PLay verse #1 again with this ending

G|--------------------------------------|

D|--------------------------------------|

A|--------------------------------------|

E|-3~-------3/5--5-5--5-5-0-5-0-5-0-5p0-|

Verse #3:

G|------------------------------------------------|

D|------------------------------------------------|

A|--------------------------3--3--3-3-------------|

E|--5--5--5-5-3-1--1--1-1-3-----------0-3--3--3-3-|

G|------------------------------------------------|

D|------------------------------------------------|

A|--------------------------3--3--5-3-----3--2----|

E|--5--5--5-5-3-1--1--1-1-3------------3--------3-|

G|----------------------------------------------------|

D|----------------------------------------------------|

A|--------------------------3--3--3-3-----------------|

E|--5--5--5-5-3-1--1--1-1-3-----------0-3--3--3--3--3-|

G|-----------------------------|

D|-----------------------------| x3

A|---------------5/7--7-7--7-7-|

E|-5--5-5--5-5-5---------------|

G|--------------------|

D|--------------------|

A|--------------------|

E|-3~-----3/5~--------|

<Drums>

Verse #4:

G|-----------------------------|

D|-----------------------------| x3

A|---------------5/7--7-7--7-7-|

E|-5--5-5--5-5-5---------------|

G|--------------------|

D|--------------------| x2

A|--------------------|

E|-3~-----3/5~--------|

G|------------------------------------------------|

D|------------------------------------------------|

A|------------------------------------------------|

E|-3~-----------------3/5--5-5--5-5-0-5-0-5-0-5p0-|

Verse #5:

G|------------------------------------------------|

D|------------------------------------------------| x3

A|--------------------------3--3--3-3-------------|

E|--5--5--5-5-3-1--1--1-1-3-----------0-3--3--3-3-|

Interlude:

G|------------------------------|--------------------|

D|------------------------------|--------------------|

A|----7--5-7-----7--5-7-5-------|------------10--9--5|

E|-0----------0-----------5-7-8-|-8--7-8--7----------|

G|------------------------------|----------------------------|

D|------------------------------|----------------------------|

A|----7--5-7-----7--5-7-5-------|------------10-9-7-9-10-7-5-|

E|-0----------0-----------5-7-8-|-8--7-8--7------------------|

G|------------------------------|--------------------|

D|------------------------------|--------------------| x2

A|----7--5-7-----7--5-7-5-------|------------10--9--5|

E|-0----------0-----------5-7-8-|-8--7-8--7----------|

Outro(smae as intro x6 with this ending):

G|-------------------------5--5--5-5-7-------------------|

D|-------------3--3--3-3-x-------------5--5--5-----------|

A|---------3-5-----------------------------------3-------|

E|-5--5--5-------------------------------------5----5~---|

Get this song at:  amazon.com

Share your thoughts

0 Comments found