Red Hot Chili Peppers

Red Hot Chili Peppers - Otherside Giutar Tab guitar tab

Intro:

E------------------------------------

B------------------------------------

G------------------------------------

D---------7-7-9-7--------------------

A---7-7-7---------10-7---5-5-5-------

E------------------------------------

E------------------------------------

B------------------------------------

G------------------------------------

D---------7-7-9-7--------------------

A---7-7-7---------10-7-7-7-7--5-5-5--

E------------------------------------

E------------------------------------

B------------------------------------

G------------------------------------

D---------7-7-9-7--------------------

A---7-7-7---------10-7-7-7-7--5-5-5--

E------------------------------------

E------------------------------------

B------------------------------------

G-------------9-9--------------------

D---------7-7-----9-9----------------

A---7-7-7----------------------------

E------------------------------------

Then

E------------------15----------------

B----13----12------------------------

G------------------------------------

D------------------------------------ x3

A------------------------------------

E------------------------------------

E-----3------------------5-----------

B-----3------------------5-----------

G-----4------------------6-----------

D-----5------------------7-----------

A-----5------------------7-----------

E-----3------------------5-----------

E------------------15----------------

B----13----12------------------------

G------------------------------------

D------------------------------------ x3

A------------------------------------

E------------------------------------

E-----3------------------5-----------

B-----3------------------5-----------

G-----4------------------6-----------

D-----5------------------7----------- x3

A-----5------------------7-----------

E-----3------------------5-----------

Then

E------------------------------------

B------------------------------------

G------------------------------------

D---------7-7-9-7--------------------

A---7-7-7---------10-7-7-7-7--5-5-5--

E------------------------------------

E------------------------------------

B------------------------------------

G------------------------------------

D---------7-7-9-7--------------------

A---7-7-7---------10-7-7-7-7--5-5-5--

E------------------------------------

E------------------------------------

B------------------------------------

G-------------9-9-9-9----12-12-12-12-

D---------7-7------------------------

A---7-7-7----------------------------

E------------------------------------

Then

E------------------15----------------

B----13----12------------------------

G------------------------------------

D------------------------------------ x3

A------------------------------------

E------------------------------------

E-----3------------------5-----------

B-----3------------------5-----------

G-----4------------------6-----------

D-----5------------------7-----------

A-----5------------------7-----------

E-----3------------------5-----------

E------------------15----------------

B----13----12------------------------

G------------------------------------

D------------------------------------ x3

A------------------------------------

E------------------------------------

E-----3------------------5-----------

B-----3------------------5-----------

G-----4------------------6-----------

D-----5------------------7----------- x3

A-----5------------------7-----------

E-----3------------------5-----------

Then

E------------------------------------

B------------------------------------

G------------------------------------

D---------7-7-9-7--------------------

A---7-7-7---------10-7-7-7-7--5-5-5--

E------------------------------------

E------------------------------------

B------------------------------------

G------------------------------------

D---------7-7-9-7--------------------

A---7-7-7---------10-7-7-7-7--5-5-5--

E------------------------------------

E------------------------------------

B------------------------------------

G-------------9-9-9-9----12-12-12-12-

D---------7-7------------------------

A---7-7-7----------------------------

E------------------------------------

Then

E------------------15----------------

B----13----12------------------------

G------------------------------------

D------------------------------------ x3

A------------------------------------

E------------------------------------

E-----3------------------5-----------

B-----3------------------5-----------

G-----4------------------6-----------

D-----5------------------7-----------

A-----5------------------7-----------

E-----3------------------5-----------

E------------------15----------------

B----13----12------------------------

G------------------------------------

D------------------------------------ x3

A------------------------------------

E------------------------------------

E-----3------------------5-----------

B-----3------------------5-----------

G-----4------------------6-----------

D-----5------------------7----------- x3

A-----5------------------7-----------

E-----3------------------5-----------

Solo:

E----12-12-12------------------------ x4

B-------------12-12-12---------------

G------------------------------------

D------------------------------------

A------------------------------------

E------------------------------------

E--------------------12-12-12-12-12-12-12h15

B10-10-10-10-10-10-10-----------------------

G-------------------------------------------

D-------------------------------------------

A-------------------------------------------

E-------------------------------------------

E--12-12-12-12-12-12-12h15-12-12-12h15-12-12-12h15

B-------------------------------------------------

G-------------------------------------------------

D-------------------------------------------------

A-------------------------------------------------

E-------------------------------------------------

After this Anthony keeps singing the verse,

and just keep playing the part of the solo of

12-12-12-12-12-12-12h15-12-12-12-12-12-12-12h15-12-12-12h15-12-12-12h15

util the end of the song

Get this song at:  amazon.com

Share your thoughts

0 Comments found