Red Hot Chili Peppers

Red Hot Chili Peppers - Off The Map Around The World bass tab

Song : Around the world

Band : Red Hot Chilli Peppers

I tabbed whay Flea plays on Off the map!! It's 99% right!!

I didn't find th solo at the beginning but I will tab it soon!!

This tab is 100% correct! I see Flea play this on Off The Map!!

Intro

G|-----------------|-----------------|

D|-----------------|-----------------|

A|-----------------|-----------------|

E|-0---------------|-0---0---0---0---|

G|-------------------------------------------------|

D|-12h14-14-12h14-14-12h14-14-12h14p12-------------|

A|-------------------------------------14-13-12----|

E|----------------------------------------------15-|

G|-------------------------------------------------|

D|-12h14-14-12h14-14-12h14-14-12-------------------|

A|-------------------------------14-13-12-10-------|

E|-------------------------------------------12-10-|

Repeat this two last bars 4 times

G|------|

D|------|

A|------|

E|-3/10-|

Verse 1

G|---10-12-----9-10-|---10-12-----10-9---|

D|------------------|------------------8-|

A|------------------|--------------------|

E|-3-------1-3------|-3-------1-3--------|

G|---10-12-----9-10-|---10-12-------------|

D|------------------|---------------------|

A|------------------|----------8-7--------|

E|-3-------1-3------|-3------------87878--|

G|---10-12-----9-10-|---10-12--------|

D|------------------|----------------|

A|------------------|---------5*---3*|

E|-3-------1-3------|-3--------------|

G|---10-12-----9-10-|---10-12-------------|

D|------------------|-----------------3-5-|

A|------------------|-------------1-5-----|

E|-3-------1-3------|-3-------1-3---------|

Chorus 1

G|---13--------------------------------------------|

D|-6----10-10--12-12------12---------10------------|

A|-------------------10--------8-11----------10-10-|

E|---------------------------------------8-8-------|

G|----13-------------------------------------------|

D|-------10-10--12-12------12---------10-----------|

A|-11-------------------10------8-11---------10-10-|

E|---------------------------------------8-8-------|

G|----------|

D|----------|

A|----------|

E|-3/123---|

Verse 2

G|---10-12-----9-10-|---10-12-----10-9---|

D|------------------|------------------8-|

A|------------------|--------------------|

E|-3-------1-3------|-3-------1-3--------|

G|---10-12-----9-10-|-10h12-10h12-10h12|

D|------------------|------------------|

A|------------------|------------------|

E|-3-------1-3------|------------------|

G|-10h12-10h12-10h12-10h12------------|

D|------------------------101112------|

A|------------------------------101112|

E|------------------------------------|

G|---10-12-----9-10-|---10-12---------|

D|------------------|---------------3-|

A|------------------|-------------1---|

E|-3-------1-3------|-3-------1-3-----|

Chorus 2

G|---13-------------------------------------------|

D|-6----10-10--12-12------12---------10-----------|

A|-------------------10--------8-11---------10-10-|

E|--------------------------------------8-8-------|

G|----13----------------------------------------------|

D|-------10-10--12-12------12---------10--------------|

A|-11-----------------10--------8-11-----10-10--------|

E|-----------------------------------------------8-8--|

Bridge

G|-------------------------------------------------|

D|-12h14-14-12h14-14-12h14-14-12h14p12-------------|

A|-------------------------------------14-13-12----|

E|----------------------------------------------15-|

G|-------------------------------------------------|

D|-12h14-14-12h14-14-12h14-14-12-------------------|

A|-------------------------------14-13-12-10-------|

E|-------------------------------------------12-10-|

Repeat this two bars 4 times

G|--------------------0-3-0-5-0-7-0-10-0-12-0-15-0-17-0-18-0-15-0-12-0-10-12-|

D|-------------3--x-5--------------------------------------------------------|

A|----4--x-55----------------------------------------------------------------|

E|--3------------------------------------------------------------------------|

G|--0--9-10-9-10----0-3-0-5-----------3---------------|

D|---------------------------0-3-4-5-----5--3---0-1---|

A|----------------------------------------------------|

E|----------------------------------------------------|

Verse 3

G|---10-12-----9-10-|---10-12-----10-9---|

D|------------------|------------------8-|

A|------------------|--------------------|

E|-3-------1-3------|-3-------1-3--------|

G|---10-12-----9-10-|---10-12-------------|

D|------------------|---------------------|

A|------------------|-----------8-7-------|

E|-3-------1-3------|-3------------87878--|

G|---10-12-----9-10-|---10-12-----------|

D|------------------|-------------------|

A|------------------|---------5*---3*---|

E|-3-------1-3------|-3-----------------|

G|---10-12-----9-10-|----------------------------|

D|------------------|-------------------0---3-5--|

A|------------------|-----------1---1-3---3------|

E|-3-------1-3------|-3-1-0-1-3---3--------------|

Chorus 3

G|-------8-|---------------------|-------------|---5-5-----------|

D|-6---6---|---5--5--------5---5-|-3-3-5-6-5-3-|-----------------|

A|---6-----|-5--5----------------|-------------|-3-------3---3---|

E|---------|---------3-3-3---3---|-------------|-------3---3---6-|

G|---------------|-----------|-------------------|--------------0-|

D|---------------|-----------|-----------------1-|--------1-1-3---|

A|--------6-5-3--|-----------|-------------1-1---|-3-3--3---------|

E|-4-0-4-------6-|-3--3-3--3-|-1-1-3-3-4-4-------|----------------|

G|-------|----------------|-------|-----------------|

D|-6---6-|---5---5--------|-3-5-3-|---5-------------|

A|---6---|-5---5----------|-------|-3---3-3-5-6-5-3-|

E|-------|---------3-3--3-|-------|-----------------|

G|-----------------|--------|---------------|

D|-----------------|--------|---3-5-6-5-3-1-|

A|---------6-------|--------|---------------|

E|-4-0-4---0-4-0-4-|-3-3--3-|-1-------------|

Outro

G|-----------------|

D|-2-3-2-----------|

A|-------5-5-5-5-5-|

E|-----------------|

G|-----------------------|

D|-------2-3-2-----------| x6

A|-0-3-0-------5-5-5-5-5-|

E|-----------------------|

G|-----------------------------|-------------------------------|

D|-------2-3-2-----------------|-------2-3-2-------------------|

A|-0-3-0-------5-5/10-10-10-10-|-0-3-0-------5-5/12-12-12-12x-|

E|-----------------------------|-------------------------------|

G|-----------------------|

D|-------2-3-2-----------| x2

A|-0-3-0-------5-5-5-5-5-|

E|-----------------------|

G|-----------------------|

D|-------2-3-2-----------|

A|-0-3-0-------5-3-1-----|

E|-------------------3-5-|

G|-----------------------|

D|-------2-3-2-----------|

A|-0-3-0-------5-3-1-----|

E|-------------------3-1-|

G|-----------------------|

D|-------2-3-2-----------| x2

A|-0-3-0-------5-5-5-5-5-|

E|-----------------------|

G|-----------------------------|-------------------------------|

D|-------2-3-2-----------------|-------2-3-2-------------------|

A|-0-3-0-------5-5/10-10-10-10-|-0-3-0-------5-5/12-12-12-12x-|

E|-----------------------------|-------------------------------|

FLEA RULES!!!!!!!

Taken from The BassMasta -- http://www.tabs-database.com

Get this song at:  amazon.com

Share your thoughts

0 Comments found