Red Hot Chili Peppers

Red Hot Chili Peppers - Nobody Wierd Like Me bass tab

NOBODY WEIRD LIKE ME (Bassline)

As recorded by Red Hot Chili Peppers

(From the 1989 Album MOTHER'S MILK)

Words by anthony kiedis

Music by flea, john frusciante, chad smith

Intro

Q=190

4/4

Gtr I

|-----5---7-----5---7-|-----5---7---5---5---7-|-----5---7-----5---7--|

|---------------------|-----------------------|----------------------|

|-5-5---5---5-5---5---|-5-5---5---5---5---5---|-5-5---5---5-5---5----|

|---------------------|-----------------------|----------------------|

|-----5---7---5---5---7-|-----5---7-----5---7-|-----5---7---5---5---7--|

|-----------------------|---------------------|------------------------|

|-5-5---5---5---5---5---|-5-5---5---5-5---5---|-5-5---5---5---5---5----|

|-----------------------|---------------------|------------------------|

|-----5---7-----5---7-|----12-12b14==(12)-(12)r\----||------5---7-----5---7--|

|---------------------|-----------------------------||o----------------------|

|-5-5---5---5-5---5---|-5---------------------------||o-5-5---5---5-5---5----|

|---------------------|-----------------------------||-----------------------|

Verse

$

$$

4x 4x

|-----5---7-----5---7--||-||------5---7-----5---7-|-----5---7-----5---7----||

|---------------------o||-||o---------------------|-----------------------o||

|-5-5---5---5-5---5---o||-||o-5-5---5---5-5---5---|-5-5---5---5-5---5-----o||

|----------------------||-||----------------------|------------------------||

Chorus

Gtr II

|----------|----------|----------|------|

|----------|----------|----------|------|

|-3--------|----------|-5--------|-3----|

|----------|-0--------|----------|------|

|----------|----------|----------|--------|

|----------|----------|----------|--------|

|----------|----------|----------|--------|

|-0--------|-3--------|-5--------|-(5)----|

D.S. D.S.S.

Gtr I

4x 4x

||------5---7-----5---7-|-----5---7-----5---7---||-||------9---9-----9---9--||

||o---------------------|----------------------o||-||o---------------------o||

||o-5-5---5---5-5---5---|-5-5---5---5-5---5----o||-||o-7-7---7---7-7---7---o||

||----------------------|-----------------------||-||-----------------------||

Verse

4x 4x

||------5---7-----5---7-|-----5---7-----5---7--||-||------9---9-----9---9---||

||o---------------------|---------------------o||-||o----------------------o||

||o-5-5---5---5-5---5---|-5-5---5---5-5---5---o||-||o-7-7---7---7-7---7----o||

||----------------------|----------------------||-||------------------------||

Interlude

Gtr II

|-----10------11--|-------12--------13--|----------------14-12-------------|

|-----------------|---------------------|-------------12-------14-12-------|

|-8-8-----9-9-----|-10-10-----11-11-----|-------12-14----------------14-12-|

|-----------------|---------------------|-10-10----------------------------|

|----------------14-12-------------|

|-------------12-------14-12-------|

|-------12-14----------------14-12-|

|-10-10----------------------------|

|----------------14-12-------------|----------------14-12-------------|

|-------------12-------14-12-------|-------------12-------14-12-------|

|-------12-14----------------14-12-|-------12-14----------------14-12-|

|-10-10----------------------------|-10-10----------------------------|

Verse

Gtr I

4x

||------5---7-----5---7-|-----5---7-----5---7--||-||------9---9-----9---9---||

||o---------------------|---------------------o||-||o----------------------o||

||o-5-5---5---5-5---5---|-5-5---5---5-5---5---o||-||o-7-7---7---7-7---7----o||

||----------------------|----------------------||-||------------------------||

Interlude

|-----10------11--|-------12--------13--|-----------|---------|

|-----------------|---------------------|-----------|---------|

|-8-8-----9-9-----|-10-10-----11-11-----|-----------|---------|

|-----------------|---------------------|-10--------|-(10)----|

Outro

half-time Q=85

Gtr II

3x

||-----------|-------------|----------|---------------||

||o----------|-------------|----------|--------------o||

||o-5--------|-(5)-------5-|-5--------|-(5)-------5--o||

||-----------|-------------|----------|---------------||

|-----------------|-----------------|--------------*|

|-----------------|-----------------|--------------*|

|-5-5-5-5-5-5-5-5-|-5-5-5-5-5-5-5-5-|-5-5-5-5-5----*|

|-----------------|-----------------|--------------*|

Get this song at:  amazon.com

Share your thoughts

0 Comments found