Red Hot Chili Peppers

Red Hot Chili Peppers - Naked In The Rain (authors File) bass tab

Naked In The Rain (Authors File)

Tabbed by kris

x = ghost notes, there are many so be prepared

Bass

Intro:

G-|-----------|-------------|-------------|----------------------|

D-|-----------|-------------|-------------|----------------------|

A-|--0~-------|--(0)~-------|--(0)~-------|--(0)~----------------|

E-|-----------|-------------|-------------|--------------3-x-3-3-|

S S S

Bass figure 1:

G-|---------------------|----------------------|---------------------|

D-|-----5--------5--5---|-----5---------5--5---|-----5--------5--5---|

A-|---------------------|----------------------|---------------------|

E-|-3h5---0--3h5------x-|-3h5---0--3h5-------0-|-3h5---0--3h5------x-|

S P S S P P S P T S P P S S P S S P P

G-|----------------------|

D-|-----5---------5--5---|

A-|----------------------|

E-|-3h5---0--3h5-------0-|

S P S S P P S

VV** Try Right hand finger tapping **VV

Bass figure 2:

G-|-------7--------7--7---|------7---------7--7---|

D-|----x------------------|-----------------------|

A-|-3-------0--3h5------0-|-3-------0--3h5------0-|

E-|-----------------------|---0-------------------|

T P T T P P T T T P T T P P T

G-|-------7--------7--7---|------7---------7--7----|

D-|-----------------------|------------------------|

A-|-3-------0--3h5------0-|-3-5------0--3h5------0-|

E-|---x-0-----------------|------------------------|

T S P T T P P T T T P T T P P T

Chorus:

G-|-------|-------|-----------------------|---------------------|

D-|-------|-------|------5---------5--5---|-----5--------5--5---|

A-|-------|-3-----|-----------------------|---------------------|

E-|-3-----|-------|-3h5----0--3h5-------0-|-3h5---0--3h5------0-|

S P S S P P S S P S S P P S

G-|--------------|-----------|----------------------|--------------------|

D-|--------------|------1--3-|-----5---------5--5---|-----5-------5--5---|

A-|-3----0-1--2--|-3---------|----------------------|--------------------|

E-|-3------------|-----------|-3h5---0--3h5-------0-|-3h5---0-3h5------0-|

CH T T T T T T S P S S P P S S P S S P P S

Standard play, once rehersed,why not try popping and slapping.

Bass solo:

G-|----------------------------|--------------------------|

D-|----------------------------|------------------3-3h5---|

A-|-------x-1--x-3--x-4--5h6---|------x-1-x-3h4-x---------|

E-|-3--5---------------------8-|-3--5-------------------x-|

G-|---------------------------|--------7--9-7---9h10---|

D-|--------3--0-5-3-----------|-------8--8----8------8-|

A-|----------------5-3---4--1-|------------------------|

E-|-3--5-x--------------------|-3--5-------------------|

G-|-12h14-14-12h14-14-12h14-14-12h14-14-10h12-12-|-9h10-10-9-9--7-7--5p0-|

D-|----------------------------------------------|-----------------------|

A-|----------------------------------------------|-----------------------|

E-|----------------------------------------------|-----------------------|

G-|----------------------3--|-6-6h18--18--18h19-19-/17p15-----|

D-|-------5-3-------3--5--5-|-----------------------------17-|

A-|-----------5--6----------|---------------------------------|

E-|-3--5--------------------|---------------------------------|

As before only with the odd variation.

Last Chorus:

G-|--------|------|-----------------------|---------------------|

D-|--------|------|------5---------5--5---|-----5--------5--5---|

A-|-3--1-2/|3---x-|-----------------------|---------------------|

E-|-3------|------|-3h5----0--3h5-------0-|-3h5---0--3h5------0-|

CH T T T S P S S P P S S P S S P P S

G-|--------------|--------|----------------------|--------------------|

D-|----3---------|--------|-----5---------5--5---|-----5-------5--5---|

A-|--------2h3p2h|3-------|----------------------|--------------------|

E-|-3------------|--------|-3h5---0--3h5-------0-|-3h5---0-3h5------0-|

S P P P P P S P S S P P S S P S S P P S

Supprising quite easy even the solo, but be carefull on chorus, timing is paramount,

Good luck...

Brought to you by the BassMasta - http://www.tabs-database.com

Get this song at:  amazon.com

Share your thoughts

0 Comments found