Red Hot Chili Peppers

Red Hot Chili Peppers - Minor Thing Solo guitar tab

-------------------------------------------------------------------------------

Minor thing - Red Hot Chili Peppers

-------------------------------------------------------------------------------

Tabbed by: Mattius07071988

Email:Mattius07071988@hotmail.com

Tuning: EADGBe

Hi- another tab by me, this is one of my favourite songs off of the "By the Way"

album- hope you like the tab for it

1st solo

e|pb13(14)-r13---------------------------------------------------------------|

B|-------------14h17-----------14---------------14-17-----------14-----------|

G|--------------------13-11-11----13(14)r13--11-------13(14)r13----13(14)r13-|

D|---------------------------------------------------------------------------|

A|---------------------------------------------------------------------------|

E|---------------------------------------------------------------------------|

e|---------------------------------------------------------------------------|

B|---------------------------------------------------------------------------|

G|-13------11p9--------------------------------------------------------------|

D|-----14--------11----------------------------------------------------------|

A|---------------------------------------------------------------------------|

E|---------------------------------------------------------------------------|

2nd solo x4

e|---------------------------------------------------------------------------|

B|---------------------------------------------------------------------------|

G|---4--4-4-9-11-6---4--4-4-9--7--6------------------------------------------|

D|---------------------------------------------------------------------------|

A|---------------------------------------------------------------------------|

E|---------------------------------------------------------------------------|

| (5) bend to note in brackets

| r release bend

| h hammer-on

| p pull-off

| pb Pre-bend

===============================================================================

Get this song at:  amazon.com

Share your thoughts

0 Comments found