Red Hot Chili Peppers

Red Hot Chili Peppers - Millionares Against Hunger guitar tab

-||-------------5----3/4--4----5-------|--------------------------------------||-

-||------x-x-7--5----3/4--4----5--x-x--|----x-x-x-x--7--5----5h7-x-7----------||-

-||------x-x-7--5----3/4--4----5--x-x--|----x-x-x-x--7--5----5h7-x-7----5~~---||-

-||------------------------------------|--------------------------------------||-

-||------------------------------------|--------------------------------------||-

-||--5---------------------------------|--------------------------------------||-

-||-------------5----3/4--4----5-------|-----------------------------------||-

-||------x-x-7--5----3/4--4----5--x-x--|----x-x-x-x--7--5----5h7-----------||-

-||------x-x-7--5----3/4--4----5--x-x--|----x-x-x-x--7--5----5h7--5~~------||-

-||------------------------------------|-----------------------------------||-

-||------------------------------------|-----------------------------------||-

-||--5---------------------------------|-----------------------------------||-

I think the Chorus is just to strum an E9 chord, with a funky feel

-||------7------7------||-

-||------7------7------||-

-||------7--or--7------||-

-||------6-------------||-

-||------7-------------||-

-||--------------------||-

Solo, A small one

-||----8----8----8----8--8h10----|----8----8----8-----10--8----||-------------

-||------10---10---10------------|------10---10---10-----------||-------------

-||------------------------------|-----------------------------||-------------

-||------------------------------|-----------------------------||-------------

-||------------------------------|-----------------------------||-------------

-||------------------------------|-----------------------------||-------------

Solo at 2:41 I think it?s octaves

-||------------------------------|-----------------------------||-

-||------------------------------|-----------------------------||-

-||--9--9/11-9--7----7--5--------|------------?----------------||-

-||------------------------------|-----------------------------||-

-||--7--7/9--7--5----5--3--------|-----------------------------||-

-||------------------------------|-----------------------------||-

-||------------------------------|-----------------------------||-

-||------------------------------|-----------------------------||-

-||--9--9/11-9--7----7--5--------|------------?----------------||-

-||------------------------------|-----------------------------||-

-||--7--7/9--7--5----5--3--------|-----------------------------||-

-||------------------------------|-----------------------------||- x2

Verse Bass Riff:

-||----------------------|-------7--5--5h7---7-5--||-

-||--------7-------------|------------------------||-

-||-----------3--3/4--5--|----x------------x------||-

-||--5-x-x---------------|------------------------||-

-||----------------------|-------7--5-----7--5--||-

-||--------7-------------|----------------------||-

-||-----------3--3/4--5--|----x--------5--------||-

-||--5-x-x---------------|----------------------||-

Get this song at:  amazon.com

Share your thoughts

0 Comments found