Red Hot Chili Peppers

Red Hot Chili Peppers - Million Miles Of Water guitar tab

This is a great b-side from stadium arcadium that should have made the album.

Standard Tuning.......

Main chords for the intro, verse, and solo...

e-------------------------------|

B-------------------------------|

G-------------------------------|

D-2--44444-----7777--99---------|

A-2--22222--5--5555--77---------|

E-0---------3-------------------|

The Chorus is played with arpeggio's on a higher scale but these are the rythym chords,

play them as power chords cause it's easier to shift...

e------------------------|

B------------------------|

G------------------------|

D----4--2--5-----5-----7-|

A-5--2--2--3--7--3--5--5-|

E-3-----0-----5-----3----|

Thats the whole song, feel free to comment but it's all correct.Added by tabs-database.com and our distinguished partners

Get this song at:  amazon.com

Share your thoughts

0 Comments found