Red Hot Chili Peppers

Red Hot Chili Peppers - Midnight (2) guitar tab

Song: Midnight

Band: Red Hot Chili Peppers

By: Dan

Intro: This is played by the strings but the chords are:

| C | G | D | A |

Verse:

Fadd9 Dma7 D Dma7 D

e-|---4--4--4--4--|-2--2--2--2-------------|

b-|---4--4--4--4--|-2--3--2--3----3p2------|

g-|---4--4--4--4--|-2--2--2--2--------4p2--| x3 then,

d-|---6--6--6--6--|-0--0--0--0-------------|

a-|---4--4--4--4--|------------------------|

E-|---2--2--2--2--|------------------------|

Fadd9 Dma7 D Dma7 D

e-|---4--4--4--4--|-2--2--2--2-------------|

b-|---4--4--4--4--|-2--3--2--3--------5----|

g-|---4--4--4--4--|-2--2--2--2----4/6------|

d-|---6--6--6--6--|-0--0--0--0-------------|

a-|---4--4--4--4--|------------------------|

E-|---2--2--2--2--|------------------------|

Bm7 Bmext7 Dma7 D Dma7 D Dma7

e-|---7--7--7---7---|-2--2--2--2--2--|

b-|---7--7--10--10--|-2--3--2--3--2--|

g-|---7--7--7---7---|-2--2--2--2--2--| x2 then,

d-|---7--7--7---7---|-0--0--0--0--0--|

a-|---9--9--9---9---|----------------|

E-|---7--7--7---7---|----------------|

Fadd9 Dma7 D Dma7 D

e-|---4--4--4--4--|-2--2--2--2-------------|

b-|---4--4--4--4--|-2--3--2--3----3p2------|

g-|---4--4--4--4--|-2--2--2--2--------4p2--|

d-|---6--6--6--6--|-0--0--0--0-------------|

a-|---4--4--4--4--|------------------------|

E-|---2--2--2--2--|------------------------|

Fadd9 Dma7 D Dma7 D

e-|---4--4--4--4--|-2--2--2--2-------------|

b-|---4--4--4--4--|-2--3--2--3-------------|

g-|---4--4--4--4--|-2--2--2--2--------2----| then,

d-|---6--6--6--6--|-0--0--0--0----2/4------|

a-|---4--4--4--4--|------------------------|

E-|---2--2--2--2--|------------------------|

Bm7 Bmext7 Dma7 D Dma7 D Dma7

e-|---7--7--7---7---|-2--2--2--2--2--|

b-|---7--7--10--10--|-2--3--2--3--2--|

g-|---7--7--7---7---|-2--2--2--2--2--| x2

d-|---7--7--7---7---|-0--0--0--0--0--|

a-|---9--9--9---9---|----------------|

E-|---7--7--7---7---|----------------|

Bridge:

| A | E | F | C |

| A | E | F | Fma7 |

Chorus:

| C | G | D | A | a few times

This is it apart from later in the song when the first line

of the bridge is played 3 times followed by the second line.

Listen to the CD for the order.

Get this song at:  amazon.com

Share your thoughts

0 Comments found