Red Hot Chili Peppers

Red Hot Chili Peppers - Make You Feel Better bass tab

Song: Make You Feel Better

Artist: Red Hot Chili Peppers

Album: Stadium Arcadium

Tabbed By: Marcos Prieto (marcrow_ps@yahoo.es)

Notation legend:

x -> mute.

\ -> slide up. \ It can be after or before the note,

like 1h3,

/ -> slide down. | but if there's no enought space it can be

h -> hammer on. | over or down, like G|-13-...

p -> pull off. / D|--h-...

~ -> let ring.

r -> rest.

S -> slap.

P -> pop.

+ + -> the rhythm of the song, generally 4x4. If there are 2

digits notes

or there's no enough space, I lengthen it,

from (+ + ...) to (+ · + · ...)

|·------·| -> repeat this a number of times, for example |·3-3-3-3·| x4

repeats 3-3-3-3 four times.

Verse 1:

+ + + + +

G||----------------||

D|·----------------·|

A|·-----REST-------·|

E||----------------||x8

(0:15)

Em Bm C G

+ + + + + + + + + + + + + + + +

G||----------------|----------------|----------------|----------------||

D|·----------------|9---------------|10--------------|----------------·|

A|·7---------------|----------------|----------------|10--------------·|

E||----------------|----------------|----------------|----------------|| x2

Em Bm C G

+ + + + + + + + + + + + + + + +

G||----------------|----------------|------9---------|----------------||

D|·------------7---|9---------------|10----------10--|----------------·|

A|·7-----10--------|----------------|----------------|10--------------·|

E||----------------|----------------|----------------|----------------|| x2

Em Bm C G

+ + + + + + + + + + + + + + + +

G||----------------|----------------|----------------|----------------||

D|·----------------|9---------------|10--------------|----------------·|

A|·7---------------|----------------|----------------|10--------------·|

E||----------------|----------------|----------------|----------------|| x2

Em Bm C G

+ + + + + + + + + + + + + + + +

G|----------------|----------------|------9---------|----------------|

D|------------7---|9---------------|10----------10--|----------------|

A|7-----10--------|----------------|----------------|10--------------|

E|----------------|----------------|----------------|----------------|

Em Bm C G

+ + + + + + + + + + + + + + + +

G|----------------|----------------|------9---------|----------------|

D|------------7---|9---------------|10----------10--|----------------|

A|7-----10--------|----------------|----------------|10------10------|

E|----------------|----------------|----------------|----------------|

Chorus 1:

G D (5º) Em (5º) C (5º)

+ + + + + + + + + + + + + + + +

G||----------------|----------------|----------------|----------------|

D|·----------------|7-----7---7-7---|9-----9---9-9---|----------------|

A|·10----10--1010--|----------------|----------------|10------101010--|

E||----------------|----------------|----------------|----------------|

G D (5º) Em (5º) C

+ + + + + + + + + + + + + + + +

G|----------------|----------------|----------------|----------------||

D|----------------|7-----7---7-7---|9-----9---9-9---|10--10--10--10--·|

A|10----10--1010--|----------------|----------------|----------------·|

E|----------------|----------------|----------------|----------------|| x2

Verse 2:

+ + + + + + + + +

G||----------------|| |----------------|

D|·----------------·| |----------------|

A|·-----REST-------·| |--------14\\\\\\|

E||----------------||x7 |----------------|

Em Bm C G

+ + + + + + + + + + + + + + + +

G||----------------|----------------|----------------|----------------||

D|·----------------|9---------------|10--------------|----------------·|

A|·7---------------|----------------|----------------|10--------------·|

E||----------------|----------------|----------------|----------------|| x2

Em Bm C G

+ + + + + + + + + + + + + + + +

G|----------------|----------------|----------------|----------------|

D|----------------|9---------------|10--------------|----------------|

A|7---------------|----------------|----------------|10------10--9---|

E|----------------|----------------|----------------|----------------|

Em Bm C G

+ + + + + + + + + + + + + + + +

G|----------------|----------------|----------------|----------------|

D|----------------|9---------------|10--------------|----------------|

A|7---------------|----------------|----------------|10------10------|

E|----------------|----------------|----------------|----------------|

Chorus 2:

G D (5º) Em (5º) C (5º)

+ + + + + + + + + + + + + + + +

G|----------------|----------------|----------------|----------------|

D|----------------|7-----7---7-7---|9-----9---9-9---|----------------|

A|10----10--1010--|----------------|----------------|10--1010--1010--|

E|----------------|----------------|----------------|----------------|

G D (5º) Em (5º) C

+ + + + + + + + + + + + + + + +

G|----------------|----------------|----------------|----------------|

D|----------------|7-----7---7-7---|9-----9---9-9---|10----1010--10--|

A|10----10--1010--|----------------|----------------|----------------|

E|----------------|----------------|----------------|----------------|

G D (5º) Em (5º) C (5º)

+ + + + + + + + + + + + + + + +

G|----------------|----------------|----------------|----------------|

D|----------------|7-----7---7-7---|9-----9---9-9---|----------------|

A|10----10--1010--|----------------|----------------|10----10--1010--|

E|----------------|----------------|----------------|----------------|

G D (5º) Em (5º) C

+ + + + + + + + + + + + + + + +

G|----------------|----------------|----------------|----------------|

D|----------------|7-----7---7-7---|9-----9---9-9---|10--10--10--10--|

A|10----10--1010--|----------------|----------------|----------------|

E|----------------|----------------|----------------|----------------|

Bridge:

D Em

+ + + + + + + + + + + + + + + +

G|----------------|----------------|----------------|----------------|

D|------------9---|12--9-----------|--------7---9---|7---------------|

A|----9---12------|--------12--9---|7---10----------|----10--7-------|

E|10--------------|----------------|----------------|------------10--|

C Am C

+ + + + + + + + + + + + + + + +

G|----------------|----------------|----------------|----------------|

D|------------7---|10--7-----------|----------------|----------------|

A|----7---10------|--------10--7---|--------5/7-----|----7---8---10--|

E|8---------------|----------------|5---8-------5---|8---------------|

Verse 3:

Em Bm C G

+ + + + + + + + + + + + + + + +

G||----------------|----------------|----------------|----------------||

D|·----------------|9---------------|10--------------|----------------·|

A|·7---------------|----------------|----------------|10--------------·|

E||----------------|----------------|----------------|----------------|| x4

Em Bm C G

+ + + + + + + + + + + + + + + +

G|----------------|----------------|------9---------|----------------|

D|------------7---|9-------9-------|10----------10--|----------------|

A|7-----10--------|----------------|----------------|10------9---10--|

E|----------------|----------------|----------------|----------------|

Em Bm C G

+ + + + + + + + + + + + + + + +

G|----------------|----------------|------9-----12--|----------------|

D|------------7---|9-----7-----9---|10--------------|----------------|

A|7-----10--------|----------------|----------------|10----1010101010|

E|----------------|----------------|----------------|----------------|

Chorus 3:

G D (5º) Em (5º) C (5º)

+ + + + + + + + + + + + + + + +

G|----------------|----------------|----------------|----------------|

D|----------------|7-----7---7-7---|9-----9---9-9---|----------------|

A|10----10--1010--|----------------|----------------|10--1010--1010--|

E|----------------|----------------|----------------|----------------|

G D (5º) Em (5º) C

+ + + + + + + + + + + + + + + +

G|----------------|----------------|----------------|----------------|

D|----------------|7-----7---7-7---|9-----9---9-9---|10---10101010---|

A|10----10--1010--|----------------|----------------|----------------|

E|----------------|----------------|----------------|----------------|

G D (5º) Em (5º) C (5º)

+ + + + + + + + + + + + + + + +

G|----------------|----------------|----------------|----------------|

D|----------------|7-----7---7-7---|9-----9---9-9---|----------------|

A|10----10--1010--|----------------|----------------|10----10--1010--|

E|----------------|----------------|----------------|----------------|

G D (5º) Em (5º) C

+ + + + + + + + + + + + + + + +

G|----------------|----------------|----------------|----------------|

D|----------------|7-----7---7-7---|9-----9---9-9---|10--10--10--10--|

A|10----10--1010--|----------------|----------------|----------------|

E|----------------|----------------|----------------|----------------|

G D (5º) Em (5º) C (5º)

+ + + + + + + + + + + + + + + +

G|----------------|----------------|----------------|----------------|

D|----------------|7-----7---7-7---|9-----9---9-9---|----------------|

A|10----10--1010--|----------------|----------------|10----10--1010--|

E|----------------|----------------|----------------|----------------|

G D (5º) Em (5º) C

+ + + + + + + + + + + + + + + +

G|----------------|----------------|----------------|----12------12--|

D|----------------|7-----7---7-7---|9-----9---9-9---|10------10------|

A|10----10--1010--|----------------|----------------|----------------|

E|----------------|----------------|----------------|----------------|

G D (5º) Em (5º) C (5º)

+ + + + + + + + + + + + + + + +

G|----------------|----------------|----------------|----------------|

D|----------------|7-----7---7-7---|9-----9---9-9---|----------------|

A|10----10--1010--|----------------|----------------|10----10--1010--|

E|----------------|----------------|----------------|----------------|

G D (5º) Em (5º) C

+ + + + + + + + + + + + + + + +

G|----------------|----------------|----------------|----------------|

D|----------------|7-----7---7-7---|9-----9---9-9---|10--10--9---7---|

A|10----10--1010--|----------------|----------------|----------------|

E|----------------|----------------|----------------|----------------|

G

+ + + +

G|----------------|

D|----------------|

A|10~-------------|

E|----------------|

__ _ __ __ _____ _____ _____

/ | / | / | / `\ / ___/ / __ / ( __/

/ |/ | / /|| / /) / // / / // \ \

/ /| /|| / /^|| / /|| //___ / / // ___) )

/ / | / || / / || / / || / / / ^^/ / /

^^^^^^^^^^^^^^^^^^^^^^^^^^^^^^^^^^^^^^^^^^^^^^^^^

Get this song at:  amazon.com

Share your thoughts

0 Comments found