Red Hot Chili Peppers

Red Hot Chili Peppers - Leverage Of Space Live Bass guitar tab

This is my first tab pretty much ever.

here it is

Tuning

E|----

A|----

D|----

G|----

|------------------19-19-19----19-19 21-21-21-21--------------------|

|---------21-21-21----------21--------------------------------------|

|19-19-19-----------------------------------------------------------|

|-------------------------------------------------------------------|

|------------------21-21-21-----------------------------------------|

|---------19-19-19----------19-19-19-------19-19--------------------|

|17-17-17----------------------------17-17--------------------------|

|-------------------------------------------------------------------|

|------------------21-21-21-----------------------------------------|

|---------17-17-17----------17-17-17-------17-17--------------------|

|15-15-15----------------------------15-15--------------------------|

|-------------------------------------------------------------------|

|------------------17-17-17----19-19-17-17-17-17--------------------|

|---------19-19-19----------19--------------------------------------|

|17-17-17-----------------------------------------------------------|

|-------------------------------------------------------------------|

It's played pretty dam fast, three finger picking helps if you can do it well...if you

keep up with the whole song with just two fingers let me know, because certainly

me if anythings wrong.

Jeff BAdded by tabs-database.com and our distinguished partners

Get this song at:  amazon.com

Share your thoughts

0 Comments found