Red Hot Chili Peppers

Red Hot Chili Peppers - Leverage Of Space bass tab

there are two riffs in this song.it is on the second cd of live in hyde park.

riff 1(intro,verse, interlude):

g------12------12------12------14------12------12------12------12------12------12-------

d--14------14------14------14------12------12------12------12------10------10-----------

a---------------------------------------------------------------------------------------

e---------------------------------------------------------------------------------------

g-----12------12------14------14------14------14------------

d-10------10------12------12------12------12----------------

a------------------------------------------------------------

e------------------------------------------------------------

riff two( bass part before chorus,chorus, guitar solo)

g-----------16-16-16-19-19-19-16-19-19-21--------------------21-21-21----------------

d---------------------------------------------------19-19-19----------------19-------

a--19-19-19--------------------------------17-17-17-------------------17-17----------

e------------------------------------------------------------------------------------

g--------------------21-21-21----------------------------17-17-17-------19-19-17------

d-----------17-17-17----------------17----------19-19-19----------19-19----------19---

a--15-15-15-------------------15-15----17-17-17---------------------------------------

e-------------------------------------------------------------------------------------

before the second chorus flea just play this:

g-----------16-16-16-19-19-19-16-19-19-21----------16-16-16-19-19-19-16-21-21-19-16---

d-------------------------------------------------------------------------------------

a--19-19-19-------------------------------19-19-19------------------------------------

e-------------------------------------------------------------------------------------

Get this song at:  amazon.com

Share your thoughts

0 Comments found