Red Hot Chili Peppers

Red Hot Chili Peppers - I Like Dirt bass tab

I LIKE DIRT

IN THE VERSES THERE ARE SOME VARIATIONS LISTEN N U CAN PICK EM UP

Intro:

G|--------------------------|

D|--------------------------|

A|--------------------------|

E|--5-7---5-7---5-7---5-7---|

Verse#1:

G|-----------------------------------------|

D|------9------9-x7-8-----9------9-x7-8-9--|

A|-----------------------------------------|x8

E|--5/7---x5/7--------5/7---x5/7-----------|

Chorus:

G|-----------------------------|

D|-----------------------------|

A|--5------5------5-----5------|x2

E|----7-7----7-7----7-7---7-7--|

Verse#2

G|-----------------------------------------|

D|------9------9-x7-8-----9------9-x7-8-9--|

A|-----------------------------------------|x6

E|--5/7---x5/7--------5/7---x5/7-----------|

Interlude:

G|-----------------------------------------|

D|------------------------13---10---8--6---|

A|--------------------------13---10--8--6--|

E|--8----8-8-------8----8------------------|

Verse#3

G|-----------------------------------------|

D|------9------9-x7-8-----9------9-x7-8-9--|

A|-----------------------------------------|x2

E|--5/7---x5/7--------5/7---x5/7-----------|

Chorus:

G|-----------------------------|

D|-----------------------------|

A|--5------5------5-----5------|x2

E|----7-7----7-7----7-7---7-7--|

Solo:

G|--------------------------|

D|--------------------------|

A|--5-7---5-7---5-7---5-7---|

E|--------------------------|

G|-----------------------------------------|

D|------9------9-x7-8-----9------9-x7-8-9--|

A|-----------------------------------------|x2

E|--5/7---x5/7--------5/7---x5/7-----------|

Verse#4

G|-----------------------------------------|

D|------9------9-x7-8-----9------9-x7-8-9--|

A|-----------------------------------------|x2

E|--5/7---x5/7--------5/7---x5/7-----------|

Outro:

G|-----------------------------|

D|-----------------------------|

A|--5------5------5-----5------|x2

E|----7-7----7-7----7-7---7-7--|

Get this song at:  amazon.com

Share your thoughts

0 Comments found