Red Hot Chili Peppers

Red Hot Chili Peppers - I Feel Love bass tab

Red Hot Chili Peppers

I Feel Love (live in Hydepark)

transcribed by Tom Dime

One of those realy cool covers that can only be funked RHCP!

Riff A Riff B Riff C

G|-----5-5-----3-3-|-----8-8-----6-6-|-----10-10-------8-8-|

D|---------5-5-----|---------8-8-----|-----------10-10-----|

A|-3-3-------------|-6-6-------------|-8-8-----------------|

E|-----------------|-----------------|---------------------|

Riff D

G|-------12-12-------10-10-|

D|-------------12-12-------|

A|-10-10-------------------|

E|-------------------------|

Riff A 24x

Riff B 8x

Riff C 8x

Riff D 16x

Riff A 2x \

Riff B 2x \

Riff C 2x / 2x

Riff D 2x /

Get this song at:  amazon.com sheetmusicplus.com

Share your thoughts

0 Comments found