Red Hot Chili Peppers

Red Hot Chili Peppers - I Could Die For You guitar tab

HEy, this song is pretty tough to figure out, but i got it right... i know this

Its a great song, so enjoy

Intro

play an A chord, then change to this chord and this one, with this fill at the end

E------------------------4-4--4-4--4-4-4-4-4-4-4--------------

B-2-2--2-2-2---2-2--2-2--2-2--2-2--2-2-2-2-2-2-2--------------

G-2-2--2-2-2---4-4--4-4--2-2--2-2--2-2-2-2-2-2-2----2-------2-

D-2-2--2-2-2---2-2--2-2--2-2--2-2--2-2-2-2-2-2-2---2------2---

A-0-0--0-0-0---0-0--0-0--0-0--0-0--0-0-0-0-0-0-0--0-----------

E-------------------------------------------------------4-----

verse one

something inside the cards....

E--2-2-2-2--2--2--2-----7--7-7-7--7--7-7-7-7

B--2-2-2-2--2--2--2-----6--6-6-6--6--6-6-6-6

G--2-2-2-2--2--2--2-----6--6-6-6--6--6-6-6-6 repeat

D--4-4-4-4--4--4--4-----6--6-6-6--6--6-6-6-6

A--4-4-4-4--4--4--4-----4--4-4-4--4--4-4-4-4

E--2-2-2-2--2--2--2-------------------------

This is what I want.....

E-9---9--9--9--9---------12--12-12-12-12-12-12-

B-10--10-10-10-10--------10--10-10-10-10-10-10-

G-9---9--9--9--9---------11--11-11-11-11-11-11- repeat

D-11--11-11-11-11--------9---9--9--9--9--9--9--

A-0---0--0--0--0-------------------------------

E----------------------------------------------

Chorus

I could die...

E----------9---------7-7-7-7-7----------

B----9-----10-----9--7-107-107----------

G-6--9--7--9---6--9--7-7-7-7-7--7h9p7---

D-7--9--9--11--7--9--9-9-9-9-9--------9\\ then back to the intro, then to the verse

A-7--7--9--9---7--7---------------------

E-5--0--7------5--0---------------------

Bridge 1

you can see...

E-14-14-14-14-14-14----------16-16-16-

B-12-12-12-12-12-12-14-14-14-14-14-14-

G-13-13-13-13-13-13-14-14-14-14-14-14- repeat

D-15-15-15-15-15-15-14-14-14-14-14-14-

A-------------------12-12-12-12-12-12-

E-------------------------------------

then this>

come along and go.....

E-9-12--9-12--9----0---0--0--0--

B-9-9---9-9---9----10--10-10-10-

G-9-9---9-9---9----9---9--9--9-- repeat let the 11 ring throughout the first lick

D-11---------------11--11-11-11-

A------------------0---0--0--0--

E-------------------------------

Chorus (same chords as before, just strum them, then add this fill at the end)

E-9--7--5--4

B-10-7--7--5 listen to the song for the timing, the notes and chords are right

bridge two

Come again and tell....

E-7-7-7-7-7-7-7-7-7---9-9-9-9-9-9-9-9-9

B-6-6-6-6-6-6-6-6-6---7-7-7-7-7-7-7-7-7

G-6-6-6-6-6-6-6-6-6---7-7-7-7-7-7-7-7-7 repeat the go to the riff above ( then this> )

D-6-6-6-6-6-6-6-6-6---7-7-7-7-7-7-7-7-7

A--------------------------------------

E--------------------------------------

then the rest is all a repeat of the stuff above... listen to the song for timing, and what goes where, I gave the lyrics to where each riff goes, have fun with this one, its awesome

any comments are welcome>>>> scootamajuta69@aol.com

RED HOT CHILI PEPPERS KICK ASS!!!!

Get this song at:  amazon.com

Share your thoughts

0 Comments found