Red Hot Chili Peppers

Red Hot Chili Peppers - Hollywood guitar tab

Author/Artist: Red Hot Chili Peppers

Title: Hollywood

Album: Freaky Styley

Transcribed by: Greenie 12

Intro: Played with Chorus

G9 Bb C

-|----6----6--6------------------------------------|-

-|----5----5--5--------------------------3----5----|-

-|----4----4--4--------2h3--5-3----------3----5----|-

-|----5----5--5-----------------5--3-----3----5----|-

-|------------------------------------5------------|-

-|-------------------------------------------------|- x2

Verse Riff: Clean sound

-|-------------------------------------|------------------------------------|-

-|-------------------------------------|------------------------------------|-

-|----5--3--x-3------------------------|--5--3--x-3-------------------------|-

-|---------------x-3--5--x-5-5--5-5----|-------------x-3--5--x--5-5--5-5----|-

-|-------------------------------------|------------------------------------|-

-|-------------------------------------|------------------------------------|-

Verse Variations:

-|-------------------------------------|--------------------------------|-

-|-------------------------------------|----------------)-|-|-|--|\-----|-

-|----5--3--x-3------------------------|--5--3--x-3--x-5--5-5-5--5-p3---|-

-|---------------x-3--5--x-5-5--5-5----|--------------------------------|-

-|-------------------------------------|--------------------------------|-

-|-------------------------------------|--------------------------------|-

Chorus:

Bb F G

-|-------------------------------------|----------------------------------|-

-|-------------------------------------|----3-----------------------------|-

-|----5--3--x-3------------------------|----3--------2--------4-----------|-

-|---------------x-3--5--x-5-5--5-5----|----3--------3--------5-----------|-

-|-------------------------------------|----1--------3--------5-----------|-

-|-------------------------------------|-------------1--------3-----------|-

Guitar Solo: With Chorus

-|------------------------------------------------)\----------|-

-|-----)--3--6----6p5p3--5----)\-----------------5)\--5--3----|-

-|----5----------------------5--~~~~---5-3-5--5--5----5--3----|-

-|------------------------------------------------------------|-

-|------------------------------------------------------------|-

-|------------------------------------------------------------|-

Pinch Harmonic

-|-------------------------------------------------------------------------|-

-|---------------------------------)-------------------)-------------------|-

-|----3--------------3h5p3-----3--5--5--3---5--5---3--5--5--3--5--5-3~~----|-

-|-------5-5----3h5---------5-------------------------*--------------------|-

-|-------------------------------------------------------------------------|-

-|-------------------------------------------------------------------------|-

) ) )~~~~

-|---)~~~~----------------------6--8--8-6--------6--8--8-6------------6--8------|-

-|--6------6--3---6p5p3--5---8-------------8-8~~------------8-8~~--8------------|-

-|------------------------------------------------------------------------------|-

-|------------------------------------------------------------------------------|-

-|------------------------------------------------------------------------------|-

-|------------------------------------------------------------------------------|-

Chorus 2 & 3 : Played by another guitar with chorus

Bb F G

-|------------------)\----|-------------------------------|-

-|-----------3-----5)\----|----3--------------------------|-

-|-----------3-----5------|----3--------2--------4--------|-

-|--------5-----5---------|----3--------3--------5--------|-

-|------------------------|----1--------3--------5--------|-

-|------------------------|-------------1--------3--------|-

Get this song at:  amazon.com sheetmusicplus.com

Share your thoughts

0 Comments found