Red Hot Chili Peppers

Red Hot Chili Peppers - Higher Ground Bass guitar tab

Crotchet = 138

play with a funky almost triplet feel

for any1 who cares this song is in e minor

INTRO

_____3_____ _____3_____

G|------------------------[---------]--[---------]-|

D|-------------2-------------------5-----------7---|

A|-------------------------------------------------|

E|-0-----0-----------0-----3---3-------5---5-------|

1 + + + 2 + + + 3 + + + 4 + + +

T T P T T T P T T P

_____3_____ _____3_____

G|------------------------[---------]--[---------]-|

D|-------------2-------------------5-------7-------|

A|-------------------------------------------------|

E|-0-----0-----------0-----3---3-------5-------5---|

1 + + + 2 + + + 3 + + + 4 + + +

T T P T T T P T P T

_____3_____ _____3_____

G|------------------------[---------]--[---------]-|

D|-------------2-------------------5-----------7---|

A|-------------------------------------------------|

E|-0-----0-----------0-----3---3-------5---5-------|

1 + + + 2 + + + 3 + + + 4 + + +

T T P T T T P T T P

_____3_____ _____3_____

G|------------------------[---------]--[---------]-|

D|-------------2-------------------5-------7-------|

A|-------------------------------------------------|

E|-0-----0-----------0-----3---3-------5-------5---|

1 + + + 2 + + + 3 + + + 4 + + +

T T P T T T P T P T

_____3_____ _____3_____

G|------------------------[---------]--[---------]-|

D|.------------2-------------------5-----------7---|

A|.------------------------------------------------|

E|-0-----0-----------0-----3---3-------5---5-------|

1 + + + 2 + + + 3 + + + 4 + + +

T T P T T T P T T P

_____3_____ _____3_____

G|------------------------[---------]--[---------]-|

D|-------------2-----------------------------------|

A|-------------------------------------------------|

E|-0-----0-----------0-----3---5---7---7---5---3---|

1 + + + 2 + + + 3 + + + 4 + + +

T T P T T T T T T T

_____3_____ _____3_____

G|------------------------[---------]--[---------]-|

D|-------------2-------------------5-----------7---|

A|-------------------------------------------------|

E|-0-----0-----------0-----3---3-------5---5-------|

1 + + + 2 + + + 3 + + + 4 + + +

T T P T T T P T T P

_____3_____ _____3_____

G|------------------------[---------]--[---------]-|

D|-------------2----------------------------------.|

A|-------------------------4---5---4---2---2------.|

E|-0-----0-----------0-------------------------3---|

1 + + + 2 + + + 3 + + + 4 + + +

T T P T T T T T T T

VERSE

_____3_____ _____3_____

G|------------------------[---------]--[---------]-|

D|.------------2-------------------5-----------7---|

A|.------------------------------------------------| }

E|-0-----0-----------0-----3---3-------5---5-------| }

1 + + + 2 + + + 3 + + + 4 + + + }

T T P T T T P T T P } (4 Times)

_____3_____ _____3_____ }

G|------------------------[---------]--[---------]-| }

D|-------------2-------------------5-------7------.| }

A|------------------------------------------------.|

E|-0-----0-----------0-----3---3-------5-------5---|

1 + + + 2 + + + 3 + + + 4 + + +

T T P T T T P T P T

_____3_____ _____3_____

G|------------------------[---------]--[---------]-|

D|-------------4-------------------7-----------9---|

A|-------------------------------------------------|

E|-2-----2-----------2-----5---5-------7---7-------|

1 + + + 2 + + + 3 + + + 4 + + +

T T P T T T P T T P

_____3_____ _____3_____

G|------------------------[---------]--[---------]-|

D|-------------4-------------------7-----------7---|

A|-------------------------------------------------|

E|-2-----2-----------2-----5---5-------5---5-------|

1 + + + 2 + + + 3 + + + 4 + + +

T T P T T T P T T P

G|-------------------------------------------------|

D|-------------7-----------7-----5-----------------|

A|-------------------------------------7-----5-----|

E|-5-----5-----------5-----------------------------|

1 + + + 2 + + + 3 + + + 4 + + +

T T P T

_____3_____ _____3_____ _____3_____ _____3_____

G|-[-------7-]-[-------7-]-[-------6-]-[-------5-]-|

D|-------------------------------------------------|

A|-5---5-------5---5-------4---4-------3---3-------|

E|-------------------------------------------------|

1 + + + 2 + + + 3 + + + 4 + + +

T T P T T P T T P T T P

_____3_____ _____3_____

G|------------------------[---------]--[---------]-|

D|.------------2-------------------5-----------7---|

A|.------------------------------------------------| }

E|-0-----0-----------0-----3---3-------5---5-------| }

1 + + + 2 + + + 3 + + + 4 + + + }

T T P T T T P T T P } (2 Times)

_____3_____ _____3_____ }

G|------------------------[---------]--[---------]-| }

D|-------------2-------------------5-------7------.| }

A|------------------------------------------------.|

E|-0-----0-----------0-----3---3-------5-------5---|

1 + + + 2 + + + 3 + + + 4 + + +

T T P T T T P T T P

CHORUS

G|-------------------------------------------------|

D|.------------------------------------------------|

A|.------------------------------------------------| }

E|-5-----------5-----3-----5-----3-----5-----3-----| }

1 + + + 2 + + + 3 + + + 4 + + + }

} (3 times)

_____3_____ _____3_____ _____3_____ _____3_____ }

G|-[---------]-[---------]-[---------]-[---------]-| }

D|------------------------------------------------.| }

A|-7---7---7---5---0---5---7---7---7---7-------5--.|

E|-----------------------------------------7-------|

1 + + + 2 + + + 3 + + + 4 + + +

_____3_____ _____3_____ _____3_____ _____3_____

G|-[---9---11]-9---------]-[---------]-[---------]-|

D|-----------------11--10--9---8-------9---8-------|

A|-9-------------------------------9-----------9---|

E|-------------------------------------------------|

1 + + + 2 + + + 3 + + + 4 + + +

_____3_____ _____3_____ _____3_____ _____3_____

G|-[---------]-[---------]-[---------]-[---------]-|

D|-7---9---7---------------------------------------|

A|-------------9---8---7---------------------------|

E|-------------------------10--9---8---7---10--7---|

1 + + + 2 + + + 3 + + + 4 + + +

_____3_____ _____3_____

G|------------------------[---------]--[---------]-|

D|-------------2-------------------5-----------7---|

A|-------------------------------------------------|

E|-0-----0-----------0-----3---3-------5---5-------|

1 + + + 2 + + + 3 + + + 4 + + +

T T P T T T P T T P

_____3_____ _____3_____

G|------------------------[---------]--[---------]-|

D|-------------2-------------------5-------7-------|

A|-------------------------------------------------|

E|-0-----0-----------0-----3---3-------5-------5---|

1 + + + 2 + + + 3 + + + 4 + + +

T T P T T T P T P T

_____3_____ _____3_____

G|------------------------[---------]--[---------]-|

D|-------------2-------------------5-----------7---|

A|-------------------------------------------------|

E|-0-----0-----------0-----3---3-------5---5-------|

1 + + + 2 + + + 3 + + + 4 + + +

T T P T T T P T T P

_____3_____ _____3_____

G|------------------------[---------]--[---------]-|

D|-------------2-------------------5-------7-------|

A|-------------------------------------------------|

E|-0-----0-----------0-----3---3-------5-------5---|

1 + + + 2 + + + 3 + + + 4 + + +

T T P T T T P T P T

2nd chorus

G|-------------------------------------------------|

D|.------------------------------------------------|

A|.------------------------------------------------| }

E|-5-----------5-----3-----5-----3-----5-----3-----| }

1 + + + 2 + + + 3 + + + 4 + + + }

} (3 times)

_____3_____ _____3_____ _____3_____ _____3_____ }

G|-[---------]-[---------]-[---------]-[---------]-| }

D|------------------------------------------------.| }

A|-7---7---7---5---0---5---7---7---7---7-------5--.|

E|-----------------------------------------7-------|

1 + + + 2 + + + 3 + + + 4 + + +

_____3_____ _____3_____ _____3_____ _____3_____

G|-[---9---11]-9---------]-[---------]-[---------]-|

D|-----------------11--10--9---8-------9---8-------|

A|-9-------------------------------9-----------9---|

E|-------------------------------------------------|

1 + + + 2 + + + 3 + + + 4 + + +

_____3_____ _____3_____ _____3_____ _____3_____

G|-[---------]-[---------]-[---------]-[---------]-|

D|-------------------------------------------------|

A|-------------5-------------------------------5---|

E|-7---5---7-------7---5---7---5---7---5---7-------|

1 + + + 2 + + + 3 + + + 4 + + +

OUTRO

_____3_____ _____3_____

G|------------------------[---------]--[---------]-|

D|.------------2-------------------5-----------7---|

A|.------------------------------------------------|

E|-0-----0-----------0-----3---3-------5---5-------|

1 + + + 2 + + + 3 + + + 4 + + +

T T P T T T P T T P

_____3_____ _____3_____

G|------------------------[---------]--[---------]-|

D|-------------2-----------------------------------|

A|-------------------------------------------------|

E|-0-----0-----------0-----3---5---7---7---5---3---|

1 + + + 2 + + + 3 + + + 4 + + +

T T P T T T P T T P

_____3_____ _____3_____

G|------------------------[---------]--[---------]-|

D|-------------2-------------------5-----------7---|

A|-------------------------------------------------|

E|-0-----0-----------0-----3---3-------5---5-------|

1 + + + 2 + + + 3 + + + 4 + + +

T T P T T T P T T P

_____3_____ _____3_____

G|------------------------[---------]--[---------]-|

D|-------------2----------------------------------.|

A|-------------------------4---5---4---2---2------.| (repeat 4 times)

E|-0-----0-----------0-------------------------3---|

1 + + + 2 + + + 3 + + + 4 + + +

T T P T T T P T T P

then theres a little break before it changes speed going wayyyy faster

G|---------------------------------|---------------------------------|

D|.--------------------------------|--------------------------------.|

A|.--------------------------------|--------------------------------.|

E|-0-------0---0---0---0---0---0---|-3-------3---5-------3---3---3---|4times

1 + 2 + 3 + 4 + 1 + 2 + 3 + 4 +

and end on

G|-------|

D|-------|

A|-------|

E|-0-----|

|-------------|

|.-----------.|

|.-----------.|

|-------------| means repeat

______3________ means a triple

T means SLAP

P means POP

Added by tabs-database.com and our distinguished partners

Get this song at:  amazon.com

Share your thoughts

0 Comments found