Red Hot Chili Peppers

Red Hot Chili Peppers - Havana Affair (the Ramones Cover) guitar tab

tabs-database.com[http://www.tabs-database.com.com/]

Song: Havana Affair

By: Red Hot Chili Peppers (The Ramones Cover)

Guitar by: John Frusciante"

Tab by: Wazabiman

This is the Red Hot Chili Peppers version of the song "Havana Affair", it's a cover of The Ramones. It's slower than the original version but easier I think. First I downloaded The Ramones version, then I heard the Chili Peppers playin' it so I wanted to tab it. I think it's 90% right, standart tunning -E A D B G e-

CHORDS USED

B D A G F# E

e|-x-|-x--|-x-|-x-|-x-|-x--|

B|-x-|-x--|-x-|-x-|-x-|-x--|

G|-7-|-11-|-6-|-4-|-3-|-13-|

D|-9-|-12-|-7-|-5-|-4-|-14-|

A|-9-|-12-|-7-|-5-|-4-|-14-|

E|-7-|-10-|-5-|-3-|-2-|-12-|

for the intro you just have to pick the chords like these

B D A

e|-----------------------------------------------|

B|-----------------------------------------------|

G|-------7-----------------11---------6----------|

D|-----9----9-----------12----------7------------| X2

A|---9--------9------12-----------7--------------|

E|-7--------------10------------5----------------|

Now for the verses

B G

e|--------------------------------------|

B|--------------------------------------|

G|-------7---------------4--------------|

D|-----9----9----------5---5------------|

A|---9--------9------5-------5----------|

E|-7---------------3-----------3--------|

A F#

e|--------------------------------------|

B|-----------------------3-2------------|

G|-------6------------------------------|

D|-----7----7----------4----------------|

A|---7--------7------4------------------|

E|-5---------------2--------------------|

In the part "Baby, Baby make me loco.." strum: G - F# - G - F#

G F#

e|-x-|-x-|

B|-x-|-x-|

G|-4-|-3-|

D|-5-|-4-|

A|-5-|-4-|

E|-3-|-2-|

When John sings "Whoooo ooo oo" pick: B - G - F#

B G F#

e|--------------------------------------|

B|--------------------------------------|

G|-------7---------------4--------3-----|

D|-----9----9----------5--------4-------|

A|---9--------9------5--------4---------|

E|-7---------------3--------2-----------|

Then in the bridge: B - D - E

B B D E

e|-x-|-x-|-x--|-x--|

B|-x-|-x-|-x--|-x--|

G|/7-|-7-|-11-|-13-|

D|/9-|-9-|-12-|-14-|

A|/9-|-9-|-12-|-14-|

E|/7-|-7-|-10-|-12-|

The song ends with a B

Took me a while. Please Rate.

Added by tabs-database.com and our distinguished partners

Get this song at:  amazon.com sheetmusicplus.com

Share your thoughts

0 Comments found