Red Hot Chili Peppers

Red Hot Chili Peppers - Grand Pappy Du Plenty guitar tab

|------------------------------------------------------------------------------|

|------------------------------------------------------------------------------|

|---------------------------------0*-------0*----------------------------------|

|------------------------------------------------------------------------------|

|-----0*-------0*--------------------------------------------------------------|

|-2-2------2-2------5-x-0-x-2-x-2------2-2------5--5--5--5---5-5-5-5---5-5-/-2*|

|-0*------------------------------0*--0*-|

|--------------1*----1*-----------1*--1*-|

|-----2*--2*-------------2*--2*----------|

|----------------------------------------|

|----------------------------------------|

|----------------------------------------|

|-0*------------------------------0*--0*-------0----|

|--------------1*----1*-----------1*--1*------------|

|-----2*--2*-------------2*--2*------------0*-------|

|------------------------------------------------3*-|

|---------------------------------------------------|

|---------------------------------------------------|

|------------------------------------------------------------------------------|

|------------------------------------------------------------------------------|

|---------------------------------0*-------0*----------------------------------|

|------------------------------------------------------------------------------|

|-----0*-------0*--------------------------------------------------------------|

|-2-2------2-2------5-x-0-x-2-x-2------2-2------5--5--5--5---5-5-5-5---5-5-/-2*|

|-0*------------------------------0*--0*-|

|--------------1*----1*-----------1*--1*-|

|-----2*--2*-------------2*--2*----------|

|----------------------------------------|

|----------------------------------------|

|----------------------------------------|

|-0*------------------------------0*--0*-------0----|

|--------------1*----1*-----------1*--1*------------|

|-----2*--2*-------------2*--2*------------0*-------|

|------------------------------------------------3*-|

|---------------------------------------------------|

|---------------------------------------------------|

Do you like this tab? Have you found any mistakes? Then e-mail me at damian-tasker@club-internet.fr. See ya!

Get this song at:  amazon.com sheetmusicplus.com

Share your thoughts

0 Comments found