Red Hot Chili Peppers

Red Hot Chili Peppers - Give It Away (beginners Alternative) bass tab

Alternative version of Give it Away. I know it is not the actual give

it away tab, but it is an easier version for beginners.

S- Slap

Intro:

G--------------

D--------------

A---1/7--------

E-------1/7----

Verse:

G--------------------------

D--------------------------

A--------------------------

E---0-0/12-3-0-3-0-0/12~---

S S S S S S S

Chorus:

(Play in-between guitar fills)

G---------

D---------

A---------

E---1/5---

(Back to verse)

Then:

Ending verses:

G--------------------------

D--------------------------

A--------------------------

E---0-0/15-3-0-3-0-0/15~---

S S S S S S S

Get this song at:  amazon.com

Share your thoughts

0 Comments found