Red Hot Chili Peppers

Red Hot Chili Peppers - Flea Solo (great!!) bass tab

Artist:red hot chili peppers

Bassist:Flea

i dont rember where this solo is from, but i heard flea play it

one time and i fell in love with it, its pretty simple but sound

AWESOME if you can play it fast! have alot of fun, feedback please!

G|-------------------------------------||

D|-------------2--2--3--4--2--2--3--4-o||

A|-------0-2--------------------------o||

E|-3-3---------------------------------||

G|----------------------------------------------|

D|--------------------2--2--3--4--2--2--3--4^---|

A|------0-2------0-2----------------------------|

E|-3-3------3-3---------------------------------|

as i said, i dont exactly know where i saw flea play this but i tabbed

it out, so if

you have any idea where its from then please post

Get this song at:  amazon.com

Share your thoughts

0 Comments found