Red Hot Chili Peppers

Red Hot Chili Peppers - Flea And John Live At Slane Duet guitar tab

Artist: Red Hot Chili Peppers

Title: Californication intro (duet by Flea and John)

Tabbed By: Adam VDB

E|--------------------------------------------------------------------

B|-10-8-10--10-8-10-8-5-5--5-5-8------------5-3---3---5-8-5-8-12-10---

G|-------------------------------2-0-2--2-5-----5---5-----------------

D|--------------------------------------------------------------------

A|--------------------------------------------------------------------

E|--------------------------------------------------------------------

E|----------12-12--12-12-12-10-8-10-8-7-8-7-5-7-5-3-5-5-5--12-10-8-10-

B|-13-10-13-----------------------------------------------------------

G|--------------------------------------------------------------------

D|--------------------------------------------------------------------

A|--------------------------------------------------------------------

E|--------------------------------------------------------------------

E|-8-7-8-7-5-7-5-3-5-12-10-8-10-8-7-8-7-5-7-5-3-5-12-10-8-10-8-7-8-7-5-7-

B|-----------------------------------------------------------------------

G|-----------------------------------------------------------------------

D|-----------------------------------------------------------------------

A|-----------------------------------------------------------------------

E|-----------------------------------------------------------------------

E|-5-3-5-3-0-3---------------------------------------------------------

B|-------------5-3-5-3-1-3-1-0-----5-----5-----5-----5---5-----6-----6-

G|-------------------------------5-----5-----5-----5----5----5-----5---

D|-----------------------------7-----7-----7-----7-----7---7-----7-----

A|---------------------------------------------------------------------

E|---------------------------------------------------------------------

E|-----------------------------------------------------------------------

B|-----8---------5-----5-----5-----5-----5-----5-----8-----6-----8-----6-

G|---5-----5---5-----5-----5-----5-----5-----5-----5-----5-----5-----5---

D|-7-----7---7-----7-----7-----7-----7-----7-----7-----7-----7-----7-----

A|-----------------------------------------------------------------------

E|-----------------------------------------------------------------------

E|----------12-12-12-12-12-12-12-12-15-15-15-15-15-15-15-15----

B|10-8-10---13-13-13-13-13-13-13-13-13-13-13-13-13-13-13-13----

G|----------14-14-14-14-14-14-14-14-14-14-14-14-14-14-14-14----

D|-------------------------------------------------------------

A|-------------------------------------------------------------

E|-------------------------------------------------------------

E|-12-12-12-12-12-12-12-12-15-15-15-15-15-15-15-15--

B|-13-13-13-13-13-13-13-13-13-13-13-13-13-13-13-13--

G|-14-14-14-14-14-14-14-14-14-14-14-14-14-14-14-14--

D|--------------------------------------------------

A|--------------------------------------------------

E|--------------------------------------------------

E|----------------12-12-10-8-10-8-7-8------------------------------------

B|-10-8-10--10-13---------------------10-10-10-8-6-5-6-5-5-3-1-3-1-0-1-0-

G|-----------------------------------------------------------------------

D|-----------------------------------------------------------------------

A|-----------------------------------------------------------------------

E|-----------------------------------------------------------------------

E|--------------------------------------------------------------------

B|-3-5------1-3-3s5-8-5-8s10-10-3s1s3-3-3-1-3-8-5-8-12-10-10-13-10-13-

G|------2-2-----------------------------------------------------------

D|--------------------------------------------------------------------

A|--------------------------------------------------------------------

E|--------------------------------------------------------------------

E|-12-12-12-12-12-x-10-x-10-8-x-10-x-8-x-8-x-8-x-7-0-0-12-0-0-10-0-0-8-0-0-

B|-------------------------------------------------------------------------

G|-------------------------------------------------------------------------

D|-------------------------------------------------------------------------

A|-------------------------------------------------------------------------

E|-------------------------------------------------------------------------

E|-7-0-0-5-0-0-0-12-0-0-10-0-0-8-0-0-7-0-0-5-0-0-0-12-0-0-10-0-0-8-0-0-

B|---------------------------------------------------------------------

G|---------------------------------------------------------------------

D|---------------------------------------------------------------------

A|---------------------------------------------------------------------

E|---------------------------------------------------------------------

E|-7-0-0-5-0-0-0-15-0-0-12-0-0-15-0-0-12-0-0-15-0-17-17-0-0-17-0-0-17-0-0-

B|------------------------------------------------------------------------

G|------------------------------------------------------------------------

D|------------------------------------------------------------------------

A|------------------------------------------------------------------------

E|------------------------------------------------------------------------

E|-17-0-0-17-0-17b-17-17-17-17-17-17-17-17-17-17-15-12-15-17-17-17-17-17-17-

B|--------------------------------------------------------------------------

G|--------------------------------------------------------------------------

D|--------------------------------------------------------------------------

A|--------------------------------------------------------------------------

E|--------------------------------------------------------------------------

E|-17-17-17-17-15-13-12-13-12-13-12-10-12-10-8-10-8-7-8-7-5-7-5-12-10-8-

B|----------------------------------------------------------------------

G|----------------------------------------------------------------------

D|----------------------------------------------------------------------

A|----------------------------------------------------------------------

E|----------------------------------------------------------------------

E|-10-8-7-8-7-12-10-8-10-8-7-8-7-5-7-5-3-5-3-12-10-8-10-8-7-8-7-5-7-5-3-5-

B|------------------------------------------------------------------------

G|------------------------------------------------------------------------

D|------------------------------------------------------------------------

A|------------------------------------------------------------------------

E|------------------------------------------------------------------------

E|-3-0-3-5-------------------------------------

B|---------------------------------------------

G|---------------------------------------------

D|---------------------------------------------

A|---------------------------------------------

E|---------------------------------------------

Get this song at:  amazon.com

Share your thoughts

0 Comments found