Red Hot Chili Peppers

Red Hot Chili Peppers - Fire bass tab

FIRE by the Red Hot Chili PePPeRs

from PePPeRs o0@aol.com

intro

g---------------------------------

d--6-5-----3--5----------------

a--------5----------5-5--------

e--------------------------------

verse

g--------------------

d--------------------

a---0--3--5-5-----

e--------------------

Chorus

g---------------------------------------------

d---------------------------------------------

a--5-5-----------------2-2-3-3-4-4------

e---------2--3--5---5----------------------

Guitar Solo---"ah move over and let mr huckleberry take over" part

repeat each several times

g-------7------------5h7----------5---------

d----------------------------------------------

a--5-----------0-0-----------3--------------

e---------------------------------------------

after the last chorus play the first chorus once then this

and keep alternating

g-------------------------------------------

d-------------------------------------------

a-7--7--------------4-4-5-5-6-6-------

e-------4-5-7----7-----------------------

this tab is complete so dont cry to me. this version eats Jimi's alive

from PePPeRs o0@aol.com

scott b

Get this song at:  amazon.com

Share your thoughts

0 Comments found