Red Hot Chili Peppers

Red Hot Chili Peppers - Fight Like A Brave bass tab

Intro/Verse

G----------------|(x3)

D-----7---7p5---7|

A-0-0---x-----0--|

E----------------|

T T P T P T P

G------------------|

D-----7---7p5p0----|

A-0-0---x---------5|

E---------------3--|

T T P T P T P

G----------------|(x3)

D-----7---7p5---7|

A-0-0---x-----0--|

E----------------|

T T P T P T P

G------------------|

D-----7---7p5p0----|

A-0-0---x---------5|

E---------------3--|

T T P T P T P

G----------------|(x3)

D-----7---7p5---7|

A-0-0---x-----0--|

E----------------|

T T P T P T P

G------------------|

D-----7---7p5p0----|

A-0-0---x---------5|

E---------------3--|

T T P T P T P

G----------------|(x3)

D-----7---7p5---7|

A-0-0---x-----0--|

E----------------|

T T P T P T P

G------------------|

D-----7---7p5p0----|

A-0-0---x---------5|

E---------------3--|

T T P T P T T

Chorus

G--------------------|

D---9-9p7-9p7--------|

A-------------9------|

E-7-------------10-5-|

G--------------------|

D---9-9p7-9p7--------|

A-------------9------|

E-7-------------10-7-|

G--------------------|

D---9-9p7-9p7--------|

A-------------9------|

E-7-------------10-5-|

G-----------------|

D---9-9p7---------|

A---------9-------|

E-7---------10-5-0|

G----------------|(x3)

D-----7---7p5---7|

A-0-0---x-----0--|

E----------------|

T T P T P T P

G------------------|

D-----7---7p5p0----|

A-0-0---x---------5|

E---------------3--|

T T P T P T T

Guitar Solo

G---------7------|

D-5h6-----------7|

A-----7----------|

E-------0---0-0--|

T T T P T T P

G---------7----------------|

D-5h6-----------6---7---7--|

A-----7-----------7---5---4|

E-------0---0-0------------|

T T T P T T P T P T P T

G---------7------|

D-5h6-----------7|

A-----7----------|

E-------0---0-0--|

T T T P T T P

G---------7----------------|

D-5h6-----------6---7---7--|

A-----7-----------7---5---4|

E-------0---0-0------------|

T T T P T T P T P T P T

G---------7------|

D-5h6-----------7|

A-----7----------|

E-------0---0-0--|

T T T P T T P

G---------7----------------|

D-5h6-----------6---7---7--|

A-----7-----------7---5---4|

E-------0---0-0------------|

T T T P T T P T P T P T

G---------7------|

D-5h6-----------7|

A-----7----------|

E-------0---0-0--|

T T T P T T P

G---------7----------------|

D-5h6-----------6---7---7--|

A-----7-----------7---5---4|

E-------0---0-0------------|

T T T P T T P T P T P T

G---------7------|

D-5h6-----------7|

A-----7----------|

E-------0---0-0--|

T T T P T T P

G---------7----------------|

D-5h6-----------6---7---7--|

A-----7-----------7---5---4|

E-------0---0-0------------|

T T T P T T P T P T P T

G---------7------|

D-5h6-----------7|

A-----7----------|

E-------0---0-0--|

T T T P T T P

G-----------7------|

D---5h6------------|

A-------7---------5|

E-0-------0---0-3--|

T P T T P T T T

Get this song at:  amazon.com sheetmusicplus.com

Share your thoughts

0 Comments found