Red Hot Chili Peppers

Red Hot Chili Peppers - Emit Remmus (100% Correct) bass tab

Artist: Red Hot Chili Peppers

Bassist: Flea

Album: Californication

Song: Emit Remmus

This is a great song, but there aren’t a lot of good tabs for it

so I decided to solve that

Here it is have fun with it!!

Intro

G|-------------------|---------------------|

D|--------6p5h6p5h6--|--------6p5h6p5h6----|

A|--6-8-8------------|--6-8-8--------------|

E|-------------------|------------------6--|

G|-------------------|---------------------|

D|--------6p5h6p5h6--|--------6p5h6p5h6----|

A|--6-8-8------------|--6-8-8--------------|

E|-------------------|------------------6--|

G|-------------------|---------------------|

D|--------6p5h6p5h6--|--------6p5h6p5h6----|

A|--6-8-8------------|--6-8-8--------------|

E|-------------------|------------------6--|

G|-------------------|---------------------|

D|--------6p5h6p5h6--|--------6p5h6p5h6----|

A|--6-8-8------------|--6-8-8--------------|

E|-------------------|------------------6--|

Verse

G|-------------------|---------------------|

D|--------6p5h6p5h6--|--------6p5h6p5h6----|

A|--6-8-8------------|--6-8-8--------------|

E|-------------------|------------------6--|

G|-------------------|---------------------|

D|--------6p5h6p5h6--|--------6p5h6p5h6----|

A|--6-8-8------------|--6-8-8--------------|

E|-------------------|------------------6--|

G|-------------------|---------------------|

D|--------6p5h6p5h6--|--------6p5h6p5h6----|

A|--6-8-8------------|--6-8-8--------------|

E|-------------------|------------------6--|

G|-------------------|---------------------|

D|--------6p5h6p5h6--|--------6p5h6p5h6----|

A|--6-8-8------------|--6-8-8--------------|

E|-------------------|------------------6--|

G|----------------------|-----------------------|

D|--------6p5h6p5h6-6-6-|--------6p5h6p5h6------|

A|--8-6-6---------------|--6-8-8----------------|

E|----------------------|-------------------6-6-|

G|----------------------|-----------------------|

D|--------6p5h6p5h6-6-6-|--------6p5h6p5h6------|

A|--8-6-6---------------|--6-8-8----------------|

E|----------------------|-------------------6-6-|

G|----------------------|-----------------------|

D|--------6p5h6p5h6-6-6-|--------6p5h6p5h6------|

A|--8-6-6---------------|--6-8-8----------------|

E|----------------------|-------------------6-6-|

G|----------------------|-----------------------|

D|--------6p5h6p5h6-6-6-|--------6p5h6p5h6------|

A|--8-6-6---------------|--6-8-8----------------|

E|----------------------|-------------------6-6-|

Chorus

G|------------------|----------------------|

D|------------------|----------------------|

A|--6h8-8-8-/11-11--|--6h8-8-8-/11-11------|

E|------------------|----------------------|

G|------------------|----------------------|

D|------------------|----------------------|

A|--6h8-8-8-/11-11--|--6h8-8-8-/11-11------|

E|------------------|----------------------|

G|------------------|----------------------|

D|------------------|----------------------|

A|--6h8-8-8-/11-11--|--6h8-8-8-/11-11------|

E|------------------|----------------------|

G|------------------|----------------------|

D|------------------|----------------------|

A|--6h8-8-8-/11-11--|--6h8-8-8-/11-11------|

E|------------------|----------------------|

|-------------repeat EVERYTHING above---------------|

Interlude

G|-------------|-------------|-------------|---------------|

D|-------------|-------------|-------------|---------------|

A|--3--3--3-3--|-------------|--1--1--1-1--|---------------|

E|-------------|--4--4--4-4--|-------------|--1-1--1--1-1--|

G|----------------|--------------|-------------|---------------|

D|-------0-1-0----|--------------|-------------|---------------|

A|--3--3-------3--|----6--5-5-3--|--1--1--1-1--|---------------|

E|----------------|--4-----------|-------------|--1-1--1--1-1--|

Then play:

Intro Once

Verse Once

Chorus Twice

After all of that the song is over and everybody applauds and

you take your bows!

Feedback would be great!

Get this song at:  amazon.com

Share your thoughts

0 Comments found