Red Hot Chili Peppers

Red Hot Chili Peppers - Dr Funkenstein bass tab

Band: Red Hot Chili Peppers

Original artist: George Clinton & The Parliament Funkadelic

Song: Dr Funkenstein

Album: Bootleg

Bass player: Flea

Intro:

|--------------------|-----7--5----5--5--4--------|

|--------------------|----------------------------|

|--------------------|----------------------------|

|--1--------3--------|----------------------------|

|--------------------|----------------------------|

|--------------------|----------------------------|

|--------------------|----------------------------|

|--1--------3--------|----------------------------|

Verse:

|-------------------------------|---------------------------------|

|-------------------------------|---------------------------------|

|--5--3-------2---3-3------3----|--3--5--------2--3----------3----|

|----------5-------------5---5--|--------------------------5---5--|

|-------------------------------|---------------------------------|

|--------------3---4-4----------|---------------------------------|

|--5--3----3---------------3----|--3--5--------2--3----------3----|

|------------------------5---5--|--------------------------5---5--|

Outro

|--9-10-11-9-7----------------|

|-----------------------------|

|-----------------------------|

|-----------------------------|

Order:

Intro x 1

Verse x 3

Intro x 1

Verse x 2

Outro x 1

Get this song at:  amazon.com

Share your thoughts

0 Comments found