Red Hot Chili Peppers

Red Hot Chili Peppers - Dosed (perfect ;) bass tab

Song: Dosed

Artist: Red Hot Chili Peppers

Album: By the way

Tabbed by: Esteban herco (esteban323@gmail.com)

This version is easyer to understand than others i've seen before.

I also added some details from the chorus and changed a little

bit the way it's played compared with other tabs...try it, it's

a great song

Main Riff:

G|----------------|-----------------|

D|-----4-5-----4-5|-----4-5-----7-5-|

A|-3-3-----3-3----|-5-5-----7-7-----|

E|----------------|-----------------|

Main riff variations:

G|------------------|

D|-----4-5----------|

A|-5-5-----5/7-5----|

E|---------------7--|

G|------------------|

D|-----4-5-/7--5----|

A|-5-5-----------7--|

E|------------------|

Riff #1 (Chorus):

G|----------4-5-7---7--7-7---9---9--2-4-5---4---2-|

D|-5---5--5---------------------------------------|

A|------------------------------------------------|

E|------------------------------------------------|

G|-------------7---7--7-7---9---9--9-9--5--5-5-5-5-2-4-5-|

D|-5---5--5-5--------------------------------------------|

A|-------------------------------------------------------|

E|-------------------------------------------------------|

G|----------4-5-7---7--7-7---9---9--11-9--5--5-4--4-2-|

D|-5---5--5-------------------------------------------|

A|----------------------------------------------------|

E|----------------------------------------------------|

G|-----------------------7--------------------------------|

D|-5--5-5-5-5-5-7-----------------------------------------|

A|----------------5---5----5-x-7--7-9-10-9-7-5-3---3--3-3-|

E|--------------------------------------------------------|

Play Main Riff x7 (including this ending):

G|----------------|---------------|

D|-----4-5-----4-5|-----4-5-------|

A|-3-3-----3-3----|-5-5-----7-7-7-|

E|----------------|---------------|

Riff #2 (Chorus with variations):

G|----------4-5-7---7--4-7-x--9--9-11-12-11-9-7-5-5r-4-2-2-|

D|-5---5--5------------------------------------------------|

A|---------------------------------------------------------|

E|---------------------------------------------------------|

G|----------------------7--7---------------------------|

D|-5---5--5h7-5----------------------------------------|

A|--------------7-5---5------5-x-7---7--7p5-3---3--3-3-|

E|-----------------------------------------------------|

G|----------4-5-7---7--4-7-x--9--9-11-12-11-9-7-5-5r-4-2-2-|

D|-5---5--5------------------------------------------------|

A|---------------------------------------------------------|

E|---------------------------------------------------------|

G|-----------------------7--7---------------------------------------------|

D|-5---5--5h7-5-------------------7--7-7--7-7-7--7-7-7-7/10--10-10--10-10-|

A|--------------7-5---5-------5-x-----------------------------------------|

E|------------------------------------------------------------------------|

Interlude:

G|-5-5----5----7~-7-----9-7-5~--|

D|----4-5--4-5------4-5---------| x3

A|------------------------------|

E|------------------------------|

Play Main Riff (with variations) x4

Play Riff #2

Play Main Riff

Riff #3(Outro):

G|------------|------------|-------------------------------------|

D|------------|------------|-------------------------------------|

A|-3---3--5-3-|-2---2--3-2-|-0---0--0-0-0-0-0-0-0--0--0---0------|

E|------------|------------|----------------------------------3~-|

/= slide down

r= rest

p= pull

h= hammer

~= let ring

I hope you like this version...

Get this song at:  amazon.com

Share your thoughts

0 Comments found