Red Hot Chili Peppers

Red Hot Chili Peppers - Dosed Intro guitar tab

Artist: Red Hot Chili Peppers

Track: Dosed

Tabbed by Steve Hill (swhill13@aol.com)

Standard Tuning

(parenthesis stand for harmonics)

I am tired of seeing everyone tabbing it wrong. Normally I would just

complain to the makers of the tabs, but I felt like making sure people

had it right instead.

INTRO

e|-12-----12----12----12----10----10----7----7---|

B|------12----12----12----10----10----8----8-----|

G|----12----12----12----11----11----9----9-------|

D|-----------------------------------------------|

A|-----------------------------------------------|

E|-----------------------------------------------|

And if you want to sound MORE official about it, play it like this:

e|-(12)-----(12)----(12)----(12)---------------------7------7--|

B|-------(12)----(12)----(12)-------(7)------(7)---8------8----|

G|----(12)----(12)----(12)-------(7)------(7)----9------9------|

D|----------------------------(7)------(7)---------------------|

A|-------------------------------------------------------------|

E|-------------------------------------------------------------|

OK, maybe it's not more official sounding, but I'm obsessed with

harmonics and I like the way that sounds.

Get this song at:  amazon.com

Share your thoughts

0 Comments found