Red Hot Chili Peppers

Red Hot Chili Peppers - Desecration Smile Bass guitar tab

This song is a pretty cool song. Definetely not one of my favorites on the album.

the bass tab for it. Enjoy it!

DESECRATION SMILE

IN E-MINOR KEY

Intro

G-13------------13--11------|

D-----------------------14--|

A---------------------------|

E---------------------------|

Verse

G----------9-7-----------------------9-7---------7------------|

D--------------9-------------------------9--------------------|

A-7-7-7-7-------------------7-7-7-7---------------------10----|

E----------------10-8-8-10-----------------10-10----8-8----8--|

Chorus

G-------5-4----------------------------------------------|

D-----5-----5-------5-7-5--------------------------------|

A-------------7---7--------7-7-7-5-5-3-3--7-7-7-5-5-3-3--|

E-3-3-----------5----------------------------------------|

Guitar Solo part

G------------------7h9-7h9-7h9-7h9-7--------|

D-------------7h9--------------------9-7----|

A---7-5-7-5-7----------------------------9--|

E-0-----------------------------------------|

Outro

G-13-----------13-11----------11-13-13-13---13/16-11-----|

D---------------------14----14-----------------------14--|

A--------------------------------------------------------|

E--------------------------------------------------------|

ORDER:

Intro x2

Verse x4

Chorus x2

Verse x4

Chorus x2

Guitar Solo x4

Verse x2

Chorus x4

Outro

Thats it! Good luck! Plz dont kill me with ratings! i want more than 1 star! please!Added by tabs-database.com and our distinguished partners

Get this song at:  amazon.com sheetmusicplus.com

Share your thoughts

0 Comments found