Red Hot Chili Peppers

Red Hot Chili Peppers - Death Of A Martian guitar tab

Red Hot Chili Peppers

Death of a Martian

Tabbed by:Alex Adams

E-Mail:webmaster at tabs-database.com.com

Tuning:ebgdae

Intro

e|--8---11-8-11-8-11-8------6---10-6-10-6-10-6-------|

b|8---8----------------8--8---8----------------8-----|

g|---------------------------------------------------|

d|---------------------------------------------------|

a|---------------------------------------------------|

e|---------------------------------------------------|

e|--8---11-8-11-8-11-8--8-11-15-11-13-10-13-10-10-----|

b|8---8-------------------------------------------11--|

g|----------------------------------------------------|

d|----------------------------------------------------|

a|----------------------------------------------------|

e|----------------------------------------------------|

Verse ( the verse uses the same riff as the intro with small

differences)

Cm, Bb, Cm, D#, A# - X2

Pre-Chorus

G (play to the rythym)

Chorus

Cm, Bb, G#, G - X3

Bridge (outro)

Cm, G#, D#, A#

The song is in the key of Cminor so when soloing solo in the C minor pentotonic.

C-minor pentotonic

e|-------------------------8-11-------|

b|--------------------8-11------------|

g|---------------8-10-----------------|

d|----------8-10----------------------|

a|-----8-10---------------------------|

e|8-11--------------------------------|

Please rate this tab.

| # sharp

Added by tabs-database.com and our distinguished partners

Get this song at:  amazon.com

Share your thoughts

0 Comments found