Red Hot Chili Peppers

Red Hot Chili Peppers - Dani California (perfect) bass tab

G----------------------7-----------|----------------------7---------------------|

D------7-------5-3-------5h7-5-----|------7-------5-3---------3-5-3-------------|

A------------------5-5---------7-5-|------------------5-5--------------3--5--7-7|

E--5-5---5-3-3---------------------|--5-5---5-3-3-------------------5-----------|

Verse 1

G----------------------7-----------|----------------------7-------------------|

D------7-------5-3-------5h7-5-----|------7-------5-3---------------5---------|

A------------------5-5---------7-5-|------------------5-5----0--5h7---7--5----|

E--5-5---5-3-3---------------------|--5-5---5-3-3--------------------------8--|

G----------------------7-------5-------|----------------------7------------|

D------7-------5-3-------0-5h7-------5-|-----7-------5-3--------5h7-5------|

A------------------5-5-----------5h7---|-----------------5-5----------7-5--|

E--5-5---5-3-3-------------------------|-5-5---5-3-3-----------------------|

G----------------------7------------|---------------------7----------------|

D------7-------5-3-------5h7-5------|-----7-------5-3-------5h7-5-----5----|

A------------------5-5---------7-5--|-----------------5-5---------5h7---7--|

E--5-5---5-3-3----------------------|-5-5---5-3-3--------------------------|

G----------------------7-----------|-----------------------------------|

D------7-------5-3-------5h7-5-----|------7-------5-3------------------|

A------------------5-5---------7-5-|------------------5-5-5-5-5-5-5-5--|

E--5-5---5-3-3---------------------|--5-5---5-3-3----------------------|

Chorus 1

G-------------------------------------------|

D-------------------------------------------|

A----------3-3-3-3-0-3/5-5-5-5-5-5----------|x3

E--1-1-1-1-------------------------3-3-3-3--|

G----------------------------------------------------|

D----------------------------------------------------|

A----------3-3-3-3-0-3/5-5-5-5--5-5-5--5-5-5--5-5-5--|

E--1-1-1-1-------------------------------------------|

Guitar Solo

G----------------------7------------|---------------------7--------------------|

D------7-------5-3-------5h7-5------|-----7-------5-3---------3-5-3------------|

A------------------5-5---------7-5--|-----------------5-5------------3-5-7-5-3-|

E--5-5---5-3-3----------------------|-5-5---5-3-3-------------------5----------|

Verse 2

G----------------------7------------|---------------------7----------------|

D------7-------5-3-------5h7-5------|-----7-------5-3-------------5--------|

A------------------5-5---------7-5--|-----------------5-5---0-5h7----7-5---|

E--5-5---5-3-3----------------------|-5-5---5-3-3------------------------8-|

G----------------------7------------|-----------------------------------------|

D------7-------5-3-------5h7-5------|-----7-------5-3-------------------------|

A------------------5-5---------7-5--|-----------------5-5-5--5-5-5-5-5-5-5-5--|

E--5-5---5-3-3----------------------|-5-5---5-3-3-----------------------------|

CHORUS

Interlude

G------------------------------------------------|

D-------9------9---9-------------5-5--4-4-0-2----|

A---------9------9---9-7h9-----5--------------4--|

E--7-7-------7-------------3-3-------------------|

G----------------------------------------|

D-------9------9---9---------------------|

A---------9------9---9----------5-7------|

E--7-7-------7---------7-7--5h7-----7\5--|

Verse 3

G----------------------7-----------|----------------------7------7b------------|

D------7-------5-3-------5h7-5-----|------7-------5-3--------5h7-----7-5--3--0-|

A------------------5-5---------7-5-|------------------5-5----------------------|

E--5-5---5-3-3---------------------|--5-5---5-3-3------------------------------|

G----------------------7------------|-----------------------------------------|

D------7-------5-3-------5h7-5------|-----7-------5-3-------------------------|

A------------------5-5---------7-5--|-----------------5-5--5-5-5-5-5-5-5-5-5--|

E--5-5---5-3-3----------------------|-5-5---5-3-3-----------------------------|

G--9-9-9-9-9-9-------------------|

D--------------------------------|

A--------------------------------|

E---------------0-0-0-0-0-0-0-0--|

Chorus 2X

G-------------------------------------------|

D-------------------------------------------|

A----------3-3-3-3-0-3/5-5-5-5-5-5----------|

E--1-1-1-1-------------------------3-3-3-3--|

G-----------------------------------------------|

D-----------------------------------------------|

A----------3-3-3-3-0-3/5-5-5-5-5-8-5------------|

E--1-1-1-1---------------------------0-3-3-3-3--|

G---------------------------------------------|

D---------------------------------------------|

A----------3-3-3-3-0-3/5-5-5-5-5-5------------|

E--1-1-1-1-------------------------0-3-3-3-3--|

G-------------------------------------------------5-7-5---7-5--------|

D-----------------------------------------------7-------7-----7-5----|

A----------3-3-3-3-0-3/5-5-5-5--5-5-5--5-5-5--5-------------------8--|

E--1-1-1-1-----------------------------------------------------------|

G---------------------------------------------|

D---------------------------------------------|

A----------3-3-3-3-0-3/5-5-5-5-5-5------------|

E--1-1-1-1-------------------------0-3-3-3-3--|

G---------------------------------------------|

D---------------------------------------------|

A----------3-3-3-3-0-3/5-5-5-5-5-5------------|

E--1-1-1-1-------------------------0-3-3-3-3--|

G-----------------------------------------------|

D----------------------------------5h7----------|

A----------3-3-3-3-0-3/5-5-5-5-5-8-----8-5------|

E--1-1-1-1---------------------------------8-5--|

G------------------------------------------------------2---3---4---5-5-5--------|

D--------------------------------------2---3---4---5---------------------0~~~~--|

A----------------------------0-1-2-3-3---3---3---3---3---3---3---3--------------|

E--1-1-1-1-1-1-1-1-1-1-1-1-1----------------------------------------------------|

Get this song at:  amazon.com

Share your thoughts

0 Comments found