Red Hot Chili Peppers

Red Hot Chili Peppers - Charlie (perfect) Tab guitar tab

TABBED BY THE JOEMEISTER

PLEASE RATE WELL

e|--------------------------|

B|--------------------------|

G|-----------3-----------3--|

D|-----3---2-------3---2----|

A|---2---1-------2---1------|

E|-1-----------1------------|

e|-----------------------------|

B|-8-8—x-8-x-8---8-8-x-8-x-8---|

G|-7-7—x-7-x-7---7-7-x-7-x-7---|repeat

D|-8-8—x-8-x-8---8-8-x-8-x-8---|

A|-----------------------------|

E|-----------------------------|

e|-----------------------------|

B|-8-8—x-8-x-8---8-8-x-8-x-8---|

G|-7-7—x-7-x-7---7-7-x-7-x-7---|repeat

D|-8-8—x-8-x-8---8-8-x-8-x-8---|

A|-----------------------------|

E|-----------------------------|

e|-15-15-x-15-x-15---15-15-x-15-x-15---|

B|-15-15-x-15-x-15---15-15-x-15-x-15---|

G|-15-15-x-15-x-15---15-15-x-15-x-15---|repeat

D|-------------------------------------|

A|-------------------------------------|

E|-------------------------------------|

e|-15-15-x-15-x-15---15-15-x-15-x-15---|

B|-15-15-x-15-x-15---15-15-x-15-x-15---|

G|-15-15-x-15-x-15---15-15-x-15-x-15---|repeat

D|-------------------------------------|

A|-------------------------------------|

E|-------------------------------------|

Chorus:

e|-----------------|-------------------|

B|-----------------|-------------------|

G|-x-x-8-8-x-x-7-7-|-x-x-10-10-x-x-8-8-|

D|-----------------|-------------------|

A|-----------------|-------------------|

E|-----------------|-------------------|

e|-----------------|---------------------------8--8—-8--8--8--8—-8-|

B|-----------------|-x-10-10-x-x-10-10-10-x-x-10-10-10-10-10-10-10-|

G|-x-x-8-8-x-x-7-7-|-x-10-10-x-x-10-10-10-x-x----------------------|

D|-----------------|-----------------------------------------------|

A|-----------------|-----------------------------------------------|

E|-----------------|-----------------------------------------------|

Chorus

e|-------------------|-------------------|

B|-------------------|-------------------|

G|-7--5---5----------|-7--5---5----------|

D|------8---8—-7--5--|------8---8--7--5--|

A|-------------------|-------------------|

E|-------------------|-------------------|

e|-------------------|-------------------|

B|-------------------|-------------------|

G|-7--5---5----------|-7--5---5----------|

D|------8---8—-7--5--|------8---8--7--5--|

A|-------------------|-------------------|

E|-------------------|-------------------|

Get this song at:  amazon.com sheetmusicplus.com

Share your thoughts

0 Comments found