Red Hot Chili Peppers

Red Hot Chili Peppers - Calm Like A Bomb guitar tab

Calm Like A Bomb-RATM

The Battle Of Los Angeles

A A D G B E

Bass Intro:

Riff A: w/ whammy pedal up 2 oct. and toggle switchin

trill

e---------------------------------------------------------

b-12p0h12~~~~~~~~~~~~~~~~~~~-12p0h12~~~~~~~~~~~~~~~~~~~~~-

g---------------------------------------------------------

d---------------------------------------------------------

a---------------------------------------------------------

a---------------------------------------------------------

Riff A1:

e---------------------------------------------------------

b---------------------------------------------------------

g---------------------------------------------------------

d---------------------------------------------------------

a---------------------------------------------------------

a-2----2-0-2-x-5~~~-x-x---x--2----2-0-2-x-5~~~-x-x---x----

Riff B:

...stroll through the shanties...

e-----------------------------------------------------------

b-----------------------------------------------------------

g-----------------------------------------------------------

d-----------------------------------------------------------

a-----------------------------------------------------------

a-2----2-0-2-x-2-0-2-x-2-0-2-x-2----2-0-2-x-2-0-2-x-2-0-2-x-

w/ wah as filter

e------------------------------------------------------------

b------------------------------------------------------------

g------------------------------------------------------------

d------------------------------------------------------------

a-2-2-2-2-2-2-2-2-2-2-2-2-2-2-2-2-2-2-2-2-2-2-2-2-2-2-2-2-2--

a------------------------------------------------------------

Pre Chorus: w/ wah as filter

e------------------------------------------------------------

b------------------------------------------------------------

g------------------------------------------------------------

d------------------------------------------------------------

a-0h2-x-x-x-x-x-x-x-x-x-x-x-x-x-x-x-0-2p0--------------------

a-0h2-x-x-x-x-x-x-x-x-x-x-x-x-x-x-x-0-2p0---2---2---2--2--2--

Chorus:

e------------------------------------------------------------

b------------------------------------------------------------

g------------------------------------------------------------

d------------------------------------------------------------

a-0h2------------x-x-x----------0h2--------------------------

a-0h2-x-2--5--2--x-x-x-5-----2--0h2-x-2--5--2--0----5--2-----

Guitar Solo:

e------------------------------------------------------------

b-12p0-----12p0-----12p0-----12p0-----12p0-----8-------------

g------------------------------------------------------------

d------------------------------------------------------------ x4

a------------------------------------------------------------

a------------------------------------------------------------

w/ delay

e------------------------------------------------------------

b-12p8-----12p8-----12p8-----12p0--------12p0----------------

g------------------------------------------------------------

d------------------------------------------------------------

a------------------------------------------------------------

a------------------------------------------------------------

x3

e------------------------------------------------------------

b-12p0------12p0------12p0------12p0------12p0------12p0-----

g------------------------------------------------------------

d------------------------------------------------------------

a------------------------------------------------------------

a------------------------------------------------------------

e------------------------------------------------------------

b-12-------------p7---10p7---------10p7----------------------

g------------------------------------------------------------

d------------------------------------------------------------

a------------------------------------------------------------

a------------------------------------------------------------

x2

e------------------------------------------------------------

b-7-----10p7----10p7----10p7----10p7------10p7-----10p7------

g------------------------------------------------------------

d------------------------------------------------------------

a------------------------------------------------------------

a------------------------------------------------------------

that’s all

trevor jones

timmy91199@yahoo.ca

Get this song at:  amazon.com sheetmusicplus.com

Share your thoughts

0 Comments found