Red Hot Chili Peppers

Red Hot Chili Peppers - Californication Live guitar tab

Artist: Red Hot Chili Peppers

Song: Californication LIVE

DVD: Off The Map

Tabbed By: GARY RUDDELL

NOTES:

This is the live version off the dvd: OFF THE MAP

Play the solo relaxed...ESSENTIAL

INTRO:

e:-5-5---7-8-7-5-12-10-8-7-------------------------|

B:-----5-------------------10-12-8-13-12-10-12-8-8-|

G:-------------------------------------------------|

D:-------------------------------------------------|

A:-------------------------------------------------|

E:-------------------------------------------------|

e:----------------------------------------------------|

B:---13-10---10-10-10-10------------------------------|

G:-9-------9-------------9-9-12-9---9-----------------|

D:--------------------------------12-12-10-12/14-14\2-|

A:----------------------------------------------------|

E:----------------------------------------------------|

VERSE PART 1:

Am F

e:----------|-----------|

B:-----0-1~-|-----------|

G:----------|-----0-2~--|

D:---2------|-----------|

A:-0--------|---3-------|

E:----------|-1---------|

VERSE PART 2:

C G F Dm

e:-----0---|---------|---------|-----1-|

B:-------1-|-----3---|---------|-----3-|

G:---------|-------0-|---------|---2---|

D:---2-----|---------|-----3---|-0-----|

A:-3-------|---2-----|---3---3-|-------|

E:---------|-3-------|-1-------|-------|

PRE-CHORUS:

Am F

it is from the family of F's

e:-0--0-

B:-1--1-

G:-2--2-

D:-2--3-

A:-0--3-

E:-X--X

CHORUS:

C G Dm Am(NOTE: Some of the chorus' drop the Am)

e:-0--3--1--0-|

B:-1--3--3--1-|

G:-0--0--2--2-|

D:-2--0--0--2-|

A:-3--2--X--0-|

E:-X--3--X--X-|

SOLO:

e:---------------------9-----------|

B:10-9---------------10--9---------|

G:-----9-11-11-9----------11-11-11-|

D:---------------11-9--------------|

A:---------------------------------|

E:---------------------------------|

e:---------------------------------|

B:-10------------------------------|

G:----11p9-9-9------9------9-------|

D:-------------9h11---9h11---------|

A:---------------------------------|

E:---------------------------------|

| CORRECTION |

e:---------------------------------|

B:---------------------------------|

G:---------------------------------|

D:-9-9-----------------------------|

A:-----12-11-12-12-11-12-11-9-9-9--|

E:---------------------------------|

e:---------------------------------|

B:---------------------------------|

G:--------------------9h11---------|

D:---------------9h11--------------|

A:-7h9-9-9-9-9-9-------------------|

E:---------------------------------|

e:---------------------------------|

B:------------------14-14-14-14-14-|

G:-11-11-11-9-11-11----------------|

D:---------------------------------|

A:---------------------------------|

E:---------------------------------|

e:-12-12-12h14-14-14-14-14-12-12---|

B:---------------------------------|

G:---------------------------------|

D:---------------------------------|

A:---------------------------------|

E:---------------------------------|

e:-12-12-9/10-9-9-9----9-------12--|

B:------------------10---10-10-----|

G:---------------------------------|

D:---------------------------------|

A:---------------------------------|

E:---------------------------------|

e:-12-9/10-9----9-9-12-9/10-9----9-|

B:-----------10---------------10---|

G:---------------------------------|

D:---------------------------------|

A:---------------------------------|

E:---------------------------------|

e:---------9/10--------------------|

B:-10-9-10------9-10---------------|

G:---------------------------------|

D:---------------------------------|

A:---------------------------------|

E:---------------------------------|

Any questions, corrections or comments send to pocket_ninja@hotmail.com

Get this song at:  amazon.com

Share your thoughts

0 Comments found