Red Hot Chili Peppers

Red Hot Chili Peppers - Californication (live At Slane) bass tab

This Is The Live At Slane Version. This Took Me A While To Figure

Out! Sorry I Don’t That Ridiculous Intro With Flea And Frusiante,

But I’m Only Human

Verse 1

G----997h9p7------77------997h9p7------10107-

D-7---------10------10-7---------10----------

A--------------8--------------------8--------

E--------------------------------------------

Bridge

G-----------------

D-------------0-0-

A-3---------------

E-----3---1-------

Verse 2 (Verse 1)

Bridge

Prechorus

G----------------------|--------------7h97---|

D-7-7777910-----9h109--|7-7777910---------109|

A----------8-888-----10|---------8-888-------|

E----------------------|---------------------|

(This Isn’t How He Usually Dose It But He Dose Like This Here,

Trust Me!)

Chorus 1

G-----------------|-------------

D-------0-0h2p0---|-------------

A-3-3-------------|-3-3-2-3-5---

E----3-3-------5-5|----3--------

Verse 3

G----997h9p7------77------997h9p7---10979--9-

D-7---------10------10-7---------10------10--

A--------------8-------------------8---------

E--------------------------------------------

Bridge

Prechorus

Chorus 2

G-----------------|----------|--------|----------------|

D-------0-0h2p0---|----------|--------|------0—0h2p0---|

A-3-3-------------|-3-3-2-3-5|15151515|3-3-------------|

E----3-3-------5-5|----3-----|--------|---3-3-------5-5|

G---------------|

D---------------|

A-3-3---2-3-5---|

E-----3---------|

Guitar Solo

G--------11---13---------------|-----------7------------|

D------------------------------|-----9---7------7-------|

A-9h10------9----9---5--5--5-5-|---9---5------7-------7-|

E------------------------------|-7----------5-----0-7---|

(Repeat)

G--------11---13---------------|-----------7------------|

D------------------------------|-----9---7------7-------|

A-9h10------9----9---5--5--5-5-|---9---5------7-------7-|

E------------------------------|-7----------5-----0-7---|

(Repeat) (Play 3 Times)

Verse 4 (Verse 1, and 2)

Bridge

Prechorus

Chorus 3 (Chorus 1, and 2)

Get this song at:  amazon.com sheetmusicplus.com

Share your thoughts

0 Comments found