Red Hot Chili Peppers

Red Hot Chili Peppers - Cabron Tabs guitar tab

Hi guy!I'm Peev and this the tablature of Cabron a song of new R.H.C.P.'s album:By The Way

THIS IS INTRO:

D Bm D Bm G A scale D D scale Bm Bm

e|-10-|-7-|-10-|-7-|-----------------------|---------------|-10-|--------------|-7-|

B|-10-|-7-|-10-|-7-|-------12----12-----14-|---------------|-10-|--------------|-7-|

G|-11-|-7-|-11-|-7-|-----12--12----12---14-|-11-9----------|-11-|-11-9---------|-7-| x2

D|-12-|-9-|-12-|-9-|---12------12----12-14-|------12-11-12-|-12-|------12-11-9-|-9-|

A|----|---|----|---|-10----10----10-----12-|---------------|----|--------------|---|

E|----|---|----|---|-----------------------|---------------|----|--------------|---|

D Bm D Bm

Cabron cabron,cabron cabron.

D

I see you in the park

Bm

yuo're always wearing

dodger blue

D

mad doggin' me and

Bm

anyone from any another crew

G A

I am small but I am strong

D Bm

I'll get it on with you

D Bm

if you want me to

D Bm

what else can I do

G A

everyone wuold take a cue

D Bm

from anything you do

D Bm

if you want them to

D Bm

what else can they do

G

I don't want to fight

A

I want to get along with you

G

this time of night's

for singin' songs

A D

about the local news

(Scale of D and Bm)

Cabron Cabron x2

I'll com around and make pace

get down have a barbeque

let's keeo the moon awake

and do electric boogiloo

I am small but I am strong

you see i'm just like you

if you only knew

that i'm just like you

all the world would

take a cue from

anything you do

if you only knew

that they're just like you

I don't want tob fight

I want to get along with you

this time of night's

for singin' songs

about the local news

SOLO:

e|--------------| |------|

B|-15/19--15/12-| |-12/8-|

G|--------------|x4 |------|

D|--------------| |------|

A|--------------| |------|

E|--------------| |------|

cabron x8

what else can I do

if you want me to

cause I'm just like you

if you only knew

cabron x8

Get this song at:  amazon.com sheetmusicplus.com

Share your thoughts

0 Comments found